  0
SECTION
  2
HEADER
  9
$ACADVER
  1
AC1015
  9
$ACADMAINTVER
 70
     6
  9
$DWGCODEPAGE
  3
ANSI_932
  9
$INSBASE
 10
0.0
 20
0.0
 30
0.0
  9
$EXTMIN
 10
0.0
 20
0.0
 30
1.000000E+20
  9
$EXTMAX
 10
420.0
 20
297.0
 30
-1.000000E+20
  9
$LIMMIN
 10
0.0
 20
0.0
  9
$LIMMAX
 10
420.0
 20
297.0
  9
$ORTHOMODE
 70
     0
  9
$REGENMODE
 70
     1
  9
$FILLMODE
 70
     1
  9
$QTEXTMODE
 70
     0
  9
$MIRRTEXT
 70
     1
  9
$LTSCALE
 40
1.0
  9
$ATTMODE
 70
     1
  9
$TEXTSIZE
 40
2.5
  9
$TRACEWID
 40
1.0
  9
$TEXTSTYLE
  7
Standard
  9
$CLAYER
  8
0
  9
$CELTYPE
  6
ByLayer
  9
$CECOLOR
 62
   256
  9
$CELTSCALE
 40
1.0
  9
$DISPSILH
 70
     0
  9
$DIMSCALE
 40
1.0
  9
$DIMASZ
 40
2.5
  9
$DIMEXO
 40
0.625
  9
$DIMDLI
 40
3.75
  9
$DIMRND
 40
0.0
  9
$DIMDLE
 40
0.0
  9
$DIMEXE
 40
1.25
  9
$DIMTP
 40
0.0
  9
$DIMTM
 40
0.0
  9
$DIMTXT
 40
2.5
  9
$DIMCEN
 40
2.5
  9
$DIMTSZ
 40
0.0
  9
$DIMTOL
 70
     0
  9
$DIMLIM
 70
     0
  9
$DIMTIH
 70
     0
  9
$DIMTOH
 70
     0
  9
$DIMSE1
 70
     0
  9
$DIMSE2
 70
     0
  9
$DIMTAD
 70
     1
  9
$DIMZIN
 70
     8
  9
$DIMBLK
  1

  9
$DIMASO
 70
     1
  9
$DIMSHO
 70
     1
  9
$DIMPOST
  1

  9
$DIMAPOST
  1

  9
$DIMALT
 70
     0
  9
$DIMALTD
 70
     3
  9
$DIMALTF
 40
0.03937007874016
  9
$DIMLFAC
 40
1.0
  9
$DIMTOFL
 70
     1
  9
$DIMTVP
 40
0.0
  9
$DIMTIX
 70
     0
  9
$DIMSOXD
 70
     0
  9
$DIMSAH
 70
     0
  9
$DIMBLK1
  1

  9
$DIMBLK2
  1

  9
$DIMSTYLE
  2
ISO-25
  9
$DIMCLRD
 70
     0
  9
$DIMCLRE
 70
     0
  9
$DIMCLRT
 70
     0
  9
$DIMTFAC
 40
1.0
  9
$DIMGAP
 40
0.625
  9
$DIMJUST
 70
     0
  9
$DIMSD1
 70
     0
  9
$DIMSD2
 70
     0
  9
$DIMTOLJ
 70
     0
  9
$DIMTZIN
 70
     8
  9
$DIMALTZ
 70
     0
  9
$DIMALTTZ
 70
     0
  9
$DIMUPT
 70
     0
  9
$DIMDEC
 70
     2
  9
$DIMTDEC
 70
     2
  9
$DIMALTU
 70
     2
  9
$DIMALTTD
 70
     3
  9
$DIMTXSTY
  7
Standard
  9
$DIMAUNIT
 70
     0
  9
$DIMADEC
 70
     0
  9
$DIMALTRND
 40
0.0
  9
$DIMAZIN
 70
     0
  9
$DIMDSEP
 70
    46
  9
$DIMATFIT
 70
     3
  9
$DIMFRAC
 70
     0
  9
$DIMLDRBLK
  1

  9
$DIMLUNIT
 70
     2
  9
$DIMLWD
 70
    -2
  9
$DIMLWE
 70
    -2
  9
$DIMTMOVE
 70
     0
  9
$LUNITS
 70
     2
  9
$LUPREC
 70
     4
  9
$SKETCHINC
 40
1.0
  9
$FILLETRAD
 40
10.0
  9
$AUNITS
 70
     0
  9
$AUPREC
 70
     0
  9
$MENU
  1
.
  9
$ELEVATION
 40
0.0
  9
$PELEVATION
 40
0.0
  9
$THICKNESS
 40
0.0
  9
$LIMCHECK
 70
     0
  9
$CHAMFERA
 40
10.0
  9
$CHAMFERB
 40
10.0
  9
$CHAMFERC
 40
20.0
  9
$CHAMFERD
 40
0.0
  9
$SKPOLY
 70
     0
  9
$TDCREATE
 40
2455367.000000
  9
$TDUCREATE
 40
0.000000000
  9
$TDUPDATE
 40
2455367.000000
  9
$TDUUPDATE
 40
2455367.000000
  9
$TDINDWG
 40
0.0
  9
$TDUSRTIMER
 40
0.0
  9
$USRTIMER
 70
     1
  9
$ANGBASE
 50
0.0
  9
$ANGDIR
 70
     0
  9
$PDMODE
 70
     0
  9
$PDSIZE
 40
0.0
  9
$PLINEWID
 40
0.0
  9
$SPLFRAME
 70
     0
  9
$SPLINETYPE
 70
     6
  9
$SPLINESEGS
 70
     8
  9
$HANDSEED
  5
0286
  9
$SURFTAB1
 70
     6
  9
$SURFTAB2
 70
     6
  9
$SURFTYPE
 70
     6
  9
$SURFU
 70
     6
  9
$SURFV
 70
     6
  9
$UCSBASE
  2

  9
$UCSNAME
  2

  9
$UCSORG
 10
0.0
 20
0.0
 30
0.0
  9
$UCSXDIR
 10
1.0
 20
0.0
 30
0.0
  9
$UCSYDIR
 10
0.0
 20
1.0
 30
0.0
  9
$UCSORTHOREF
  2

  9
$UCSORTHOVIEW
 70
     0
  9
$UCSORGTOP
 10
0.0
 20
0.0
 30
0.0
  9
$UCSORGBOTTOM
 10
0.0
 20
0.0
 30
0.0
  9
$UCSORGLEFT
 10
0.0
 20
0.0
 30
0.0
  9
$UCSORGRIGHT
 10
0.0
 20
0.0
 30
0.0
  9
$UCSORGFRONT
 10
0.0
 20
0.0
 30
0.0
  9
$UCSORGBACK
 10
0.0
 20
0.0
 30
0.0
  9
$PUCSBASE
  2

  9
$PUCSNAME
  2

  9
$PUCSORG
 10
0.0
 20
0.0
 30
0.0
  9
$PUCSXDIR
 10
1.0
 20
0.0
 30
0.0
  9
$PUCSYDIR
 10
0.0
 20
1.0
 30
0.0
  9
$PUCSORTHOREF
  2

  9
$PUCSORTHOVIEW
 70
     0
  9
$PUCSORGTOP
 10
0.0
 20
0.0
 30
0.0
  9
$PUCSORGBOTTOM
 10
0.0
 20
0.0
 30
0.0
  9
$PUCSORGLEFT
 10
0.0
 20
0.0
 30
0.0
  9
$PUCSORGRIGHT
 10
0.0
 20
0.0
 30
0.0
  9
$PUCSORGFRONT
 10
0.0
 20
0.0
 30
0.0
  9
$PUCSORGBACK
 10
0.0
 20
0.0
 30
0.0
  9
$USERI1
 70
     0
  9
$USERI2
 70
     0
  9
$USERI3
 70
     0
  9
$USERI4
 70
     0
  9
$USERI5
 70
     0
  9
$USERR1
 40
0.0
  9
$USERR2
 40
0.0
  9
$USERR3
 40
0.0
  9
$USERR4
 40
0.0
  9
$USERR5
 40
0.0
  9
$WORLDVIEW
 70
     1
  9
$SHADEDGE
 70
     3
  9
$SHADEDIF
 70
    70
  9
$TILEMODE
 70
     1
  9
$MAXACTVP
 70
    64
  9
$PINSBASE
 10
0.0
 20
0.0
 30
0.0
  9
$PLIMCHECK
 70
     0
  9
$PEXTMIN
 10
1.000000E+20
 20
1.000000E+20
 30
1.000000E+20
  9
$PEXTMAX
 10
-1.000000E+20
 20
-1.000000E+20
 30
-1.000000E+20
  9
$PLIMMIN
 10
0.0
 20
0.0
  9
$PLIMMAX
 10
0.0
 20
0.0
  9
$UNITMODE
 70
     0
  9
$VISRETAIN
 70
     0
  9
$PLINEGEN
 70
     0
  9
$PSLTSCALE
 70
     1
  9
$TREEDEPTH
 70
  3020
  9
$CMLSTYLE
  2
STANDARD
  9
$CMLJUST
 70
     0
  9
$CMLSCALE
 40
20.0
  9
$PROXYGRAPHICS
 70
     1
  9
$MEASUREMENT
 70
     1
  9
$CELWEIGHT
370
    -1
  9
$ENDCAPS
280
     0
  9
$JOINSTYLE
280
     0
  9
$LWDISPLAY
290
     0
  9
$INSUNITS
 70
     4
  9
$HYPERLINKBASE
  1

  9
$STYLESHEET
  1

  9
$XEDIT
290
     1
  9
$CEPSNTYPE
380
     0
  9
$PSTYLEMODE
290
     1
  9
$FINGERPRINTGUID
  2
{365BF288-64E7-49D0-E4A0-B8F9471D8503}
  9
$VERSIONGUID
  2
{0AC08A1B-871A-4CA3-CBFB-E6670DCEDE64}
  9
$EXTNAMES
290
     1
  9
$PSVPSCALE
 40
0.0
  0
ENDSEC
  0
SECTION
  2
CLASSES
  0
ENDSEC
  0
SECTION
  2
TABLES
  0
TABLE
  2
VPORT
  5
8
330
0
100
AcDbSymbolTable
 70
     3
  0
VPORT
  5
29
330
8
100
AcDbSymbolTableRecord
100
AcDbViewportTableRecord
  2
*Active
 70
     0
 10
0.0
 20
0.0
 11
1.0
 21
1.0
 12
210.0
 22
148.5
 13
0.0
 23
0.0
 14
10.0
 24
10.0
 15
0.0
 25
0.0
 16
0.0
 26
0.0
 36
1.0
 17
0.0
 27
0.0
 37
0.0
 40
297.0
 41
1.414141414
 42
50.0
 43
0.0
 44
0.0
 50
0.0
 51
0.0
 71
     0
 72
     0
 73
     0
 74
     0
 75
     0
 76
     0
 77
     0
 78
     0
281
     0
 65
     0
110
0.0
120
0.0
130
0.0
111
1.0
121
0.0
131
0.0
112
0.0
122
1.0
132
0.0
 79
     0
146
0.0
  0
ENDTAB
  0
TABLE
  2
LTYPE
  5
5
330
0
100
AcDbSymbolTable
 70
     5
  0
LTYPE
  5
14
330
5
100
AcDbSymbolTableRecord
100
AcDbLinetypeTableRecord
  2
ByBlock
 70
     0
  3

 72
    65
 73
     0
 40
0.0
  0
LTYPE
  5
15
330
5
100
AcDbSymbolTableRecord
100
AcDbLinetypeTableRecord
  2
ByLayer
 70
     0
  3

 72
    65
 73
     0
 40
0.0
  0
LTYPE
  5
16
330
5
100
AcDbSymbolTableRecord
100
AcDbLinetypeTableRecord
  2
Continuous
 70
     0
  3
Solid line
 72
    65
 73
     0
 40
0.0
  0
LTYPE
  5
B1
330
5
100
AcDbSymbolTableRecord
100
AcDbLinetypeTableRecord
  2
LTYPE1
 70
     0
  3
CENTER
 72
    65
 73
     4
 40
10.0
 49
7.0
 74
     0
 49
-1.0
 74
     0
 49
1.0
 74
     0
 49
-1.0
 74
     0
  0
LTYPE
  5
B3
330
5
100
AcDbSymbolTableRecord
100
AcDbLinetypeTableRecord
  2
LTYPE2
 70
     0
  3
HIDDEN
 72
    65
 73
     2
 40
1.0
 49
0.6
 74
     0
 49
-0.4
 74
     0
  0
ENDTAB
  0
TABLE
  2
LAYER
  5
2
330
0
100
AcDbSymbolTable
 70
   128
  0
LAYER
  5
10
330
2
100
AcDbSymbolTableRecord
100
AcDbLayerTableRecord
  2
0
 70
     0
 62
     7
  6
Continuous
290
     1
370
    -3
390
F
  0
LAYER
  5
2A
330
2
100
AcDbSymbolTableRecord
100
AcDbLayerTableRecord
  2
2
 70
     0
 62
     7
  6
Continuous
290
     1
370
    -3
390
F
  0
LAYER
  5
2B
330
2
100
AcDbSymbolTableRecord
100
AcDbLayerTableRecord
  2
3
 70
     0
 62
     7
  6
Continuous
290
     1
370
    -3
390
F
  0
LAYER
  5
2C
330
2
100
AcDbSymbolTableRecord
100
AcDbLayerTableRecord
  2
4
 70
     0
 62
     7
  6
Continuous
290
     1
370
    -3
390
F
  0
LAYER
  5
2D
330
2
100
AcDbSymbolTableRecord
100
AcDbLayerTableRecord
  2
5
 70
     0
 62
     7
  6
Continuous
290
     1
370
    -3
390
F
  0
LAYER
  5
2E
330
2
100
AcDbSymbolTableRecord
100
AcDbLayerTableRecord
  2
6
 70
     0
 62
     7
  6
Continuous
290
     1
370
    -3
390
F
  0
LAYER
  5
2F
330
2
100
AcDbSymbolTableRecord
100
AcDbLayerTableRecord
  2
7
 70
     0
 62
     7
  6
Continuous
290
     1
370
    -3
390
F
  0
LAYER
  5
30
330
2
100
AcDbSymbolTableRecord
100
AcDbLayerTableRecord
  2
8
 70
     0
 62
     7
  6
Continuous
290
     1
370
    -3
390
F
  0
LAYER
  5
31
330
2
100
AcDbSymbolTableRecord
100
AcDbLayerTableRecord
  2
9
 70
     0
 62
     7
  6
Continuous
290
     1
370
    -3
390
F
  0
LAYER
  5
32
330
2
100
AcDbSymbolTableRecord
100
AcDbLayerTableRecord
  2
10
 70
     0
 62
     7
  6
Continuous
290
     1
370
    -3
390
F
  0
LAYER
  5
33
330
2
100
AcDbSymbolTableRecord
100
AcDbLayerTableRecord
  2
11
 70
     0
 62
     7
  6
Continuous
290
     1
370
    -3
390
F
  0
LAYER
  5
34
330
2
100
AcDbSymbolTableRecord
100
AcDbLayerTableRecord
  2
12
 70
     0
 62
     7
  6
Continuous
290
     1
370
    -3
390
F
  0
LAYER
  5
35
330
2
100
AcDbSymbolTableRecord
100
AcDbLayerTableRecord
  2
13
 70
     0
 62
     7
  6
Continuous
290
     1
370
    -3
390
F
  0
LAYER
  5
36
330
2
100
AcDbSymbolTableRecord
100
AcDbLayerTableRecord
  2
14
 70
     0
 62
     7
  6
Continuous
290
     1
370
    -3
390
F
  0
LAYER
  5
37
330
2
100
AcDbSymbolTableRecord
100
AcDbLayerTableRecord
  2
15
 70
     0
 62
     7
  6
Continuous
290
     1
370
    -3
390
F
  0
LAYER
  5
38
330
2
100
AcDbSymbolTableRecord
100
AcDbLayerTableRecord
  2
16
 70
     0
 62
     7
  6
Continuous
290
     1
370
    -3
390
F
  0
LAYER
  5
39
330
2
100
AcDbSymbolTableRecord
100
AcDbLayerTableRecord
  2
17
 70
     0
 62
     7
  6
Continuous
290
     1
370
    -3
390
F
  0
LAYER
  5
3A
330
2
100
AcDbSymbolTableRecord
100
AcDbLayerTableRecord
  2
18
 70
     0
 62
     7
  6
Continuous
290
     1
370
    -3
390
F
  0
LAYER
  5
3B
330
2
100
AcDbSymbolTableRecord
100
AcDbLayerTableRecord
  2
19
 70
     0
 62
     7
  6
Continuous
290
     1
370
    -3
390
F
  0
LAYER
  5
3C
330
2
100
AcDbSymbolTableRecord
100
AcDbLayerTableRecord
  2
20
 70
     0
 62
     7
  6
Continuous
290
     1
370
    -3
390
F
  0
LAYER
  5
3D
330
2
100
AcDbSymbolTableRecord
100
AcDbLayerTableRecord
  2
21
 70
     0
 62
     7
  6
Continuous
290
     1
370
    -3
390
F
  0
LAYER
  5
3E
330
2
100
AcDbSymbolTableRecord
100
AcDbLayerTableRecord
  2
22
 70
     0
 62
     7
  6
Continuous
290
     1
370
    -3
390
F
  0
LAYER
  5
3F
330
2
100
AcDbSymbolTableRecord
100
AcDbLayerTableRecord
  2
23
 70
     0
 62
     7
  6
Continuous
290
     1
370
    -3
390
F
  0
LAYER
  5
40
330
2
100
AcDbSymbolTableRecord
100
AcDbLayerTableRecord
  2
24
 70
     0
 62
     7
  6
Continuous
290
     1
370
    -3
390
F
  0
LAYER
  5
41
330
2
100
AcDbSymbolTableRecord
100
AcDbLayerTableRecord
  2
25
 70
     0
 62
     7
  6
Continuous
290
     1
370
    -3
390
F
  0
LAYER
  5
42
330
2
100
AcDbSymbolTableRecord
100
AcDbLayerTableRecord
  2
26
 70
     0
 62
     7
  6
Continuous
290
     1
370
    -3
390
F
  0
LAYER
  5
43
330
2
100
AcDbSymbolTableRecord
100
AcDbLayerTableRecord
  2
27
 70
     0
 62
     7
  6
Continuous
290
     1
370
    -3
390
F
  0
LAYER
  5
44
330
2
100
AcDbSymbolTableRecord
100
AcDbLayerTableRecord
  2
28
 70
     0
 62
     7
  6
Continuous
290
     1
370
    -3
390
F
  0
LAYER
  5
45
330
2
100
AcDbSymbolTableRecord
100
AcDbLayerTableRecord
  2
29
 70
     0
 62
     7
  6
Continuous
290
     1
370
    -3
390
F
  0
LAYER
  5
46
330
2
100
AcDbSymbolTableRecord
100
AcDbLayerTableRecord
  2
30
 70
     0
 62
     7
  6
Continuous
290
     1
370
    -3
390
F
  0
LAYER
  5
47
330
2
100
AcDbSymbolTableRecord
100
AcDbLayerTableRecord
  2
31
 70
     0
 62
     7
  6
Continuous
290
     1
370
    -3
390
F
  0
LAYER
  5
48
330
2
100
AcDbSymbolTableRecord
100
AcDbLayerTableRecord
  2
32
 70
     0
 62
     7
  6
Continuous
290
     1
370
    -3
390
F
  0
LAYER
  5
49
330
2
100
AcDbSymbolTableRecord
100
AcDbLayerTableRecord
  2
33
 70
     0
 62
     7
  6
Continuous
290
     1
370
    -3
390
F
  0
LAYER
  5
4A
330
2
100
AcDbSymbolTableRecord
100
AcDbLayerTableRecord
  2
34
 70
     0
 62
     7
  6
Continuous
290
     1
370
    -3
390
F
  0
LAYER
  5
4B
330
2
100
AcDbSymbolTableRecord
100
AcDbLayerTableRecord
  2
35
 70
     0
 62
     7
  6
Continuous
290
     1
370
    -3
390
F
  0
LAYER
  5
4C
330
2
100
AcDbSymbolTableRecord
100
AcDbLayerTableRecord
  2
36
 70
     0
 62
     7
  6
Continuous
290
     1
370
    -3
390
F
  0
LAYER
  5
4D
330
2
100
AcDbSymbolTableRecord
100
AcDbLayerTableRecord
  2
37
 70
     0
 62
     7
  6
Continuous
290
     1
370
    -3
390
F
  0
LAYER
  5
4E
330
2
100
AcDbSymbolTableRecord
100
AcDbLayerTableRecord
  2
38
 70
     0
 62
     7
  6
Continuous
290
     1
370
    -3
390
F
  0
LAYER
  5
4F
330
2
100
AcDbSymbolTableRecord
100
AcDbLayerTableRecord
  2
39
 70
     0
 62
     7
  6
Continuous
290
     1
370
    -3
390
F
  0
LAYER
  5
50
330
2
100
AcDbSymbolTableRecord
100
AcDbLayerTableRecord
  2
40
 70
     0
 62
     7
  6
Continuous
290
     1
370
    -3
390
F
  0
LAYER
  5
51
330
2
100
AcDbSymbolTableRecord
100
AcDbLayerTableRecord
  2
41
 70
     0
 62
     7
  6
Continuous
290
     1
370
    -3
390
F
  0
LAYER
  5
52
330
2
100
AcDbSymbolTableRecord
100
AcDbLayerTableRecord
  2
42
 70
     0
 62
     7
  6
Continuous
290
     1
370
    -3
390
F
  0
LAYER
  5
53
330
2
100
AcDbSymbolTableRecord
100
AcDbLayerTableRecord
  2
43
 70
     0
 62
     7
  6
Continuous
290
     1
370
    -3
390
F
  0
LAYER
  5
54
330
2
100
AcDbSymbolTableRecord
100
AcDbLayerTableRecord
  2
44
 70
     0
 62
     7
  6
Continuous
290
     1
370
    -3
390
F
  0
LAYER
  5
55
330
2
100
AcDbSymbolTableRecord
100
AcDbLayerTableRecord
  2
45
 70
     0
 62
     7
  6
Continuous
290
     1
370
    -3
390
F
  0
LAYER
  5
56
330
2
100
AcDbSymbolTableRecord
100
AcDbLayerTableRecord
  2
46
 70
     0
 62
     7
  6
Continuous
290
     1
370
    -3
390
F
  0
LAYER
  5
57
330
2
100
AcDbSymbolTableRecord
100
AcDbLayerTableRecord
  2
47
 70
     0
 62
     7
  6
Continuous
290
     1
370
    -3
390
F
  0
LAYER
  5
58
330
2
100
AcDbSymbolTableRecord
100
AcDbLayerTableRecord
  2
48
 70
     0
 62
     7
  6
Continuous
290
     1
370
    -3
390
F
  0
LAYER
  5
59
330
2
100
AcDbSymbolTableRecord
100
AcDbLayerTableRecord
  2
49
 70
     0
 62
     7
  6
Continuous
290
     1
370
    -3
390
F
  0
LAYER
  5
5A
330
2
100
AcDbSymbolTableRecord
100
AcDbLayerTableRecord
  2
50
 70
     0
 62
     7
  6
Continuous
290
     1
370
    -3
390
F
  0
LAYER
  5
5B
330
2
100
AcDbSymbolTableRecord
100
AcDbLayerTableRecord
  2
51
 70
     0
 62
     7
  6
Continuous
290
     1
370
    -3
390
F
  0
LAYER
  5
5C
330
2
100
AcDbSymbolTableRecord
100
AcDbLayerTableRecord
  2
52
 70
     0
 62
     7
  6
Continuous
290
     1
370
    -3
390
F
  0
LAYER
  5
5D
330
2
100
AcDbSymbolTableRecord
100
AcDbLayerTableRecord
  2
53
 70
     0
 62
     7
  6
Continuous
290
     1
370
    -3
390
F
  0
LAYER
  5
5E
330
2
100
AcDbSymbolTableRecord
100
AcDbLayerTableRecord
  2
54
 70
     0
 62
     7
  6
Continuous
290
     1
370
    -3
390
F
  0
LAYER
  5
5F
330
2
100
AcDbSymbolTableRecord
100
AcDbLayerTableRecord
  2
55
 70
     0
 62
     7
  6
Continuous
290
     1
370
    -3
390
F
  0
LAYER
  5
60
330
2
100
AcDbSymbolTableRecord
100
AcDbLayerTableRecord
  2
56
 70
     0
 62
     7
  6
Continuous
290
     1
370
    -3
390
F
  0
LAYER
  5
61
330
2
100
AcDbSymbolTableRecord
100
AcDbLayerTableRecord
  2
57
 70
     0
 62
     7
  6
Continuous
290
     1
370
    -3
390
F
  0
LAYER
  5
62
330
2
100
AcDbSymbolTableRecord
100
AcDbLayerTableRecord
  2
58
 70
     0
 62
     7
  6
Continuous
290
     1
370
    -3
390
F
  0
LAYER
  5
63
330
2
100
AcDbSymbolTableRecord
100
AcDbLayerTableRecord
  2
59
 70
     0
 62
     7
  6
Continuous
290
     1
370
    -3
390
F
  0
LAYER
  5
64
330
2
100
AcDbSymbolTableRecord
100
AcDbLayerTableRecord
  2
60
 70
     0
 62
     7
  6
Continuous
290
     1
370
    -3
390
F
  0
LAYER
  5
65
330
2
100
AcDbSymbolTableRecord
100
AcDbLayerTableRecord
  2
61
 70
     0
 62
     7
  6
Continuous
290
     1
370
    -3
390
F
  0
LAYER
  5
66
330
2
100
AcDbSymbolTableRecord
100
AcDbLayerTableRecord
  2
62
 70
     0
 62
     7
  6
Continuous
290
     1
370
    -3
390
F
  0
LAYER
  5
67
330
2
100
AcDbSymbolTableRecord
100
AcDbLayerTableRecord
  2
63
 70
     0
 62
     7
  6
Continuous
290
     1
370
    -3
390
F
  0
LAYER
  5
68
330
2
100
AcDbSymbolTableRecord
100
AcDbLayerTableRecord
  2
64
 70
     0
 62
     7
  6
Continuous
290
     1
370
    -3
390
F
  0
LAYER
  5
69
330
2
100
AcDbSymbolTableRecord
100
AcDbLayerTableRecord
  2
65
 70
     0
 62
     7
  6
Continuous
290
     1
370
    -3
390
F
  0
LAYER
  5
6A
330
2
100
AcDbSymbolTableRecord
100
AcDbLayerTableRecord
  2
66
 70
     0
 62
     7
  6
Continuous
290
     1
370
    -3
390
F
  0
LAYER
  5
6B
330
2
100
AcDbSymbolTableRecord
100
AcDbLayerTableRecord
  2
67
 70
     0
 62
     7
  6
Continuous
290
     1
370
    -3
390
F
  0
LAYER
  5
6C
330
2
100
AcDbSymbolTableRecord
100
AcDbLayerTableRecord
  2
68
 70
     0
 62
     7
  6
Continuous
290
     1
370
    -3
390
F
  0
LAYER
  5
6D
330
2
100
AcDbSymbolTableRecord
100
AcDbLayerTableRecord
  2
69
 70
     0
 62
     7
  6
Continuous
290
     1
370
    -3
390
F
  0
LAYER
  5
6E
330
2
100
AcDbSymbolTableRecord
100
AcDbLayerTableRecord
  2
70
 70
     0
 62
     7
  6
Continuous
290
     1
370
    -3
390
F
  0
LAYER
  5
6F
330
2
100
AcDbSymbolTableRecord
100
AcDbLayerTableRecord
  2
71
 70
     0
 62
     7
  6
Continuous
290
     1
370
    -3
390
F
  0
LAYER
  5
70
330
2
100
AcDbSymbolTableRecord
100
AcDbLayerTableRecord
  2
72
 70
     0
 62
     7
  6
Continuous
290
     1
370
    -3
390
F
  0
LAYER
  5
71
330
2
100
AcDbSymbolTableRecord
100
AcDbLayerTableRecord
  2
73
 70
     0
 62
     7
  6
Continuous
290
     1
370
    -3
390
F
  0
LAYER
  5
72
330
2
100
AcDbSymbolTableRecord
100
AcDbLayerTableRecord
  2
74
 70
     0
 62
     7
  6
Continuous
290
     1
370
    -3
390
F
  0
LAYER
  5
73
330
2
100
AcDbSymbolTableRecord
100
AcDbLayerTableRecord
  2
75
 70
     0
 62
     7
  6
Continuous
290
     1
370
    -3
390
F
  0
LAYER
  5
74
330
2
100
AcDbSymbolTableRecord
100
AcDbLayerTableRecord
  2
76
 70
     0
 62
     7
  6
Continuous
290
     1
370
    -3
390
F
  0
LAYER
  5
75
330
2
100
AcDbSymbolTableRecord
100
AcDbLayerTableRecord
  2
77
 70
     0
 62
     7
  6
Continuous
290
     1
370
    -3
390
F
  0
LAYER
  5
76
330
2
100
AcDbSymbolTableRecord
100
AcDbLayerTableRecord
  2
78
 70
     0
 62
     7
  6
Continuous
290
     1
370
    -3
390
F
  0
LAYER
  5
77
330
2
100
AcDbSymbolTableRecord
100
AcDbLayerTableRecord
  2
79
 70
     0
 62
     7
  6
Continuous
290
     1
370
    -3
390
F
  0
LAYER
  5
78
330
2
100
AcDbSymbolTableRecord
100
AcDbLayerTableRecord
  2
80
 70
     0
 62
     7
  6
Continuous
290
     1
370
    -3
390
F
  0
LAYER
  5
79
330
2
100
AcDbSymbolTableRecord
100
AcDbLayerTableRecord
  2
81
 70
     0
 62
     7
  6
Continuous
290
     1
370
    -3
390
F
  0
LAYER
  5
7A
330
2
100
AcDbSymbolTableRecord
100
AcDbLayerTableRecord
  2
82
 70
     0
 62
     7
  6
Continuous
290
     1
370
    -3
390
F
  0
LAYER
  5
7B
330
2
100
AcDbSymbolTableRecord
100
AcDbLayerTableRecord
  2
83
 70
     0
 62
     7
  6
Continuous
290
     1
370
    -3
390
F
  0
LAYER
  5
7C
330
2
100
AcDbSymbolTableRecord
100
AcDbLayerTableRecord
  2
84
 70
     0
 62
     7
  6
Continuous
290
     1
370
    -3
390
F
  0
LAYER
  5
7D
330
2
100
AcDbSymbolTableRecord
100
AcDbLayerTableRecord
  2
85
 70
     0
 62
     7
  6
Continuous
290
     1
370
    -3
390
F
  0
LAYER
  5
7E
330
2
100
AcDbSymbolTableRecord
100
AcDbLayerTableRecord
  2
86
 70
     0
 62
     7
  6
Continuous
290
     1
370
    -3
390
F
  0
LAYER
  5
7F
330
2
100
AcDbSymbolTableRecord
100
AcDbLayerTableRecord
  2
87
 70
     0
 62
     7
  6
Continuous
290
     1
370
    -3
390
F
  0
LAYER
  5
80
330
2
100
AcDbSymbolTableRecord
100
AcDbLayerTableRecord
  2
88
 70
     0
 62
     7
  6
Continuous
290
     1
370
    -3
390
F
  0
LAYER
  5
81
330
2
100
AcDbSymbolTableRecord
100
AcDbLayerTableRecord
  2
89
 70
     0
 62
     7
  6
Continuous
290
     1
370
    -3
390
F
  0
LAYER
  5
82
330
2
100
AcDbSymbolTableRecord
100
AcDbLayerTableRecord
  2
90
 70
     0
 62
     7
  6
Continuous
290
     1
370
    -3
390
F
  0
LAYER
  5
83
330
2
100
AcDbSymbolTableRecord
100
AcDbLayerTableRecord
  2
91
 70
     0
 62
     7
  6
Continuous
290
     1
370
    -3
390
F
  0
LAYER
  5
84
330
2
100
AcDbSymbolTableRecord
100
AcDbLayerTableRecord
  2
92
 70
     0
 62
     7
  6
Continuous
290
     1
370
    -3
390
F
  0
LAYER
  5
85
330
2
100
AcDbSymbolTableRecord
100
AcDbLayerTableRecord
  2
93
 70
     0
 62
     7
  6
Continuous
290
     1
370
    -3
390
F
  0
LAYER
  5
86
330
2
100
AcDbSymbolTableRecord
100
AcDbLayerTableRecord
  2
94
 70
     0
 62
     7
  6
Continuous
290
     1
370
    -3
390
F
  0
LAYER
  5
87
330
2
100
AcDbSymbolTableRecord
100
AcDbLayerTableRecord
  2
95
 70
     0
 62
     7
  6
Continuous
290
     1
370
    -3
390
F
  0
LAYER
  5
88
330
2
100
AcDbSymbolTableRecord
100
AcDbLayerTableRecord
  2
96
 70
     0
 62
     7
  6
Continuous
290
     1
370
    -3
390
F
  0
LAYER
  5
89
330
2
100
AcDbSymbolTableRecord
100
AcDbLayerTableRecord
  2
97
 70
     0
 62
     7
  6
Continuous
290
     1
370
    -3
390
F
  0
LAYER
  5
8A
330
2
100
AcDbSymbolTableRecord
100
AcDbLayerTableRecord
  2
98
 70
     0
 62
     7
  6
Continuous
290
     1
370
    -3
390
F
  0
LAYER
  5
8B
330
2
100
AcDbSymbolTableRecord
100
AcDbLayerTableRecord
  2
99
 70
     0
 62
     7
  6
Continuous
290
     1
370
    -3
390
F
  0
LAYER
  5
8C
330
2
100
AcDbSymbolTableRecord
100
AcDbLayerTableRecord
  2
100
 70
     0
 62
     7
  6
Continuous
290
     1
370
    -3
390
F
  0
LAYER
  5
8D
330
2
100
AcDbSymbolTableRecord
100
AcDbLayerTableRecord
  2
101
 70
     0
 62
     7
  6
Continuous
290
     1
370
    -3
390
F
  0
LAYER
  5
8E
330
2
100
AcDbSymbolTableRecord
100
AcDbLayerTableRecord
  2
102
 70
     0
 62
     7
  6
Continuous
290
     1
370
    -3
390
F
  0
LAYER
  5
8F
330
2
100
AcDbSymbolTableRecord
100
AcDbLayerTableRecord
  2
103
 70
     0
 62
     7
  6
Continuous
290
     1
370
    -3
390
F
  0
LAYER
  5
90
330
2
100
AcDbSymbolTableRecord
100
AcDbLayerTableRecord
  2
104
 70
     0
 62
     7
  6
Continuous
290
     1
370
    -3
390
F
  0
LAYER
  5
91
330
2
100
AcDbSymbolTableRecord
100
AcDbLayerTableRecord
  2
105
 70
     0
 62
     7
  6
Continuous
290
     1
370
    -3
390
F
  0
LAYER
  5
92
330
2
100
AcDbSymbolTableRecord
100
AcDbLayerTableRecord
  2
106
 70
     0
 62
     7
  6
Continuous
290
     1
370
    -3
390
F
  0
LAYER
  5
93
330
2
100
AcDbSymbolTableRecord
100
AcDbLayerTableRecord
  2
107
 70
     0
 62
     7
  6
Continuous
290
     1
370
    -3
390
F
  0
LAYER
  5
94
330
2
100
AcDbSymbolTableRecord
100
AcDbLayerTableRecord
  2
108
 70
     0
 62
     7
  6
Continuous
290
     1
370
    -3
390
F
  0
LAYER
  5
95
330
2
100
AcDbSymbolTableRecord
100
AcDbLayerTableRecord
  2
109
 70
     0
 62
     7
  6
Continuous
290
     1
370
    -3
390
F
  0
LAYER
  5
96
330
2
100
AcDbSymbolTableRecord
100
AcDbLayerTableRecord
  2
110
 70
     0
 62
     7
  6
Continuous
290
     1
370
    -3
390
F
  0
LAYER
  5
97
330
2
100
AcDbSymbolTableRecord
100
AcDbLayerTableRecord
  2
111
 70
     0
 62
     7
  6
Continuous
290
     1
370
    -3
390
F
  0
LAYER
  5
98
330
2
100
AcDbSymbolTableRecord
100
AcDbLayerTableRecord
  2
112
 70
     0
 62
     7
  6
Continuous
290
     1
370
    -3
390
F
  0
LAYER
  5
99
330
2
100
AcDbSymbolTableRecord
100
AcDbLayerTableRecord
  2
113
 70
     0
 62
     7
  6
Continuous
290
     1
370
    -3
390
F
  0
LAYER
  5
9A
330
2
100
AcDbSymbolTableRecord
100
AcDbLayerTableRecord
  2
114
 70
     0
 62
     7
  6
Continuous
290
     1
370
    -3
390
F
  0
LAYER
  5
9B
330
2
100
AcDbSymbolTableRecord
100
AcDbLayerTableRecord
  2
115
 70
     0
 62
     7
  6
Continuous
290
     1
370
    -3
390
F
  0
LAYER
  5
9C
330
2
100
AcDbSymbolTableRecord
100
AcDbLayerTableRecord
  2
116
 70
     0
 62
     7
  6
Continuous
290
     1
370
    -3
390
F
  0
LAYER
  5
9D
330
2
100
AcDbSymbolTableRecord
100
AcDbLayerTableRecord
  2
117
 70
     0
 62
     7
  6
Continuous
290
     1
370
    -3
390
F
  0
LAYER
  5
9E
330
2
100
AcDbSymbolTableRecord
100
AcDbLayerTableRecord
  2
118
 70
     0
 62
     7
  6
Continuous
290
     1
370
    -3
390
F
  0
LAYER
  5
9F
330
2
100
AcDbSymbolTableRecord
100
AcDbLayerTableRecord
  2
119
 70
     0
 62
     7
  6
Continuous
290
     1
370
    -3
390
F
  0
LAYER
  5
A0
330
2
100
AcDbSymbolTableRecord
100
AcDbLayerTableRecord
  2
120
 70
     0
 62
     7
  6
Continuous
290
     1
370
    -3
390
F
  0
LAYER
  5
A1
330
2
100
AcDbSymbolTableRecord
100
AcDbLayerTableRecord
  2
121
 70
     0
 62
     7
  6
Continuous
290
     1
370
    -3
390
F
  0
LAYER
  5
A2
330
2
100
AcDbSymbolTableRecord
100
AcDbLayerTableRecord
  2
122
 70
     0
 62
     7
  6
Continuous
290
     1
370
    -3
390
F
  0
LAYER
  5
A3
330
2
100
AcDbSymbolTableRecord
100
AcDbLayerTableRecord
  2
123
 70
     0
 62
     7
  6
Continuous
290
     1
370
    -3
390
F
  0
LAYER
  5
A4
330
2
100
AcDbSymbolTableRecord
100
AcDbLayerTableRecord
  2
124
 70
     0
 62
     7
  6
Continuous
290
     1
370
    -3
390
F
  0
LAYER
  5
A5
330
2
100
AcDbSymbolTableRecord
100
AcDbLayerTableRecord
  2
125
 70
     0
 62
     7
  6
Continuous
290
     1
370
    -3
390
F
  0
LAYER
  5
A6
330
2
100
AcDbSymbolTableRecord
100
AcDbLayerTableRecord
  2
126
 70
     0
 62
     7
  6
Continuous
290
     1
370
    -3
390
F
  0
LAYER
  5
A7
330
2
100
AcDbSymbolTableRecord
100
AcDbLayerTableRecord
  2
127
 70
     0
 62
     7
  6
Continuous
290
     1
370
    -3
390
F
  0
LAYER
  5
A8
330
2
100
AcDbSymbolTableRecord
100
AcDbLayerTableRecord
  2
128
 70
     0
 62
     7
  6
Continuous
290
     1
370
    -3
390
F
  0
ENDTAB
  0
TABLE
  2
STYLE
  5
3
330
0
100
AcDbSymbolTable
 70
     8
  0
STYLE
  5
11
330
3
100
AcDbSymbolTableRecord
100
AcDbTextStyleTableRecord
  2
Standard
 70
     0
 40
0.0
 41
1.0
 50
0.0
 71
     0
 42
2.5
  3
txt
  4
extfont.shx
  0
STYLE
  5
AD
330
3
100
AcDbSymbolTableRecord
100
AcDbTextStyleTableRecord
  2
KANJI0
 70
     0
 40
2.5
 41
1.0
 50
0.0
 71
     0
 42
2.5
  3
txt.shx
  4
extfont.shx
  0
STYLE
  5
10D
330
3
100
AcDbSymbolTableRecord
100
AcDbTextStyleTableRecord
  2
KANJI1
 70
     0
 40
3.0
 41
0.933333333
 50
15.0
 71
     0
 42
3.0
  3
txt.shx
  4
extfont.shx
  0
STYLE
  5
233
330
3
100
AcDbSymbolTableRecord
100
AcDbTextStyleTableRecord
  2
KANJI2
 70
     0
 40
2.5
 41
0.5
 50
0.0
 71
     0
 42
2.5
  3
txt.shx
  4
extfont.shx
  0
STYLE
  5
270
330
3
100
AcDbSymbolTableRecord
100
AcDbTextStyleTableRecord
  2
KANJI3
 70
     0
 40
2.5
 41
1.0
 50
0.0
 71
     0
 42
2.5
  3
txt.shx
  4
extfont.shx
  0
STYLE
  5
277
330
3
100
AcDbSymbolTableRecord
100
AcDbTextStyleTableRecord
  2
KANJI4
 70
     0
 40
2.5
 41
1.0
 50
0.0
 71
     0
 42
2.5
  3
txt.shx
  4
extfont.shx
  0
STYLE
  5
279
330
3
100
AcDbSymbolTableRecord
100
AcDbTextStyleTableRecord
  2
KANJI5
 70
     0
 40
3.0
 41
1.0
 50
0.0
 71
     0
 42
3.0
  3
txt.shx
  4
extfont.shx
  0
STYLE
  5
27F
330
3
100
AcDbSymbolTableRecord
100
AcDbTextStyleTableRecord
  2
KANJI6
 70
     0
 40
3.0
 41
0.9
 50
15.0
 71
     0
 42
3.0
  3
txt.shx
  4
extfont.shx
  0
ENDTAB
  0
TABLE
  2
VIEW
  5
6
330
0
100
AcDbSymbolTable
 70
     0
  0
ENDTAB
  0
TABLE
  2
UCS
  5
7
330
0
100
AcDbSymbolTable
 70
     0
  0
ENDTAB
  0
TABLE
  2
APPID
  5
9
330
0
100
AcDbSymbolTable
 70
     1
  0
APPID
  5
12
330
9
100
AcDbSymbolTableRecord
100
AcDbRegAppTableRecord
  2
ACAD
 70
     0
  0
ENDTAB
  0
TABLE
  2
DIMSTYLE
  5
A
330
0
100
AcDbSymbolTable
 70
     1
100
AcDbDimStyleTable
 71
     0
  0
DIMSTYLE
105
27
330
A
100
AcDbSymbolTableRecord
100
AcDbDimStyleTableRecord
  2
ISO-25
 70
     0
  3

  4

 40
1.0
 41
2.5
 42
0.625
 43
3.75
 44
1.25
 45
0.0
 46
0.0
 47
0.0
 48
0.0
 71
     0
 72
     0
 73
     0
 74
     0
 75
     0
 76
     0
 77
     1
 78
     8
 79
     0
140
2.5
141
2.5
142
0.0
143
0.039370079
144
1.0
145
0.0
146
1.0
147
0.625
148
0.0
170
     0
171
     3
172
     1
173
     0
174
     0
175
     0
176
     0
177
     0
178
     0
179
     0
270
     2
271
     2
272
     2
273
     2
274
     3
275
     0
276
     0
277
     2
278
    46
279
     0
280
     0
281
     0
282
     0
283
     1
284
     8
285
     0
286
     0
288
     0
289
     0
340
11
341
0
342
0
343
0
344
0
371
    -2
372
    -2
  0
ENDTAB
  0
TABLE
  2
BLOCK_RECORD
  5
1
330
0
100
AcDbSymbolTable
 70
     3
  0
BLOCK_RECORD
  5
1F
330
1
100
AcDbSymbolTableRecord
100
AcDbBlockTableRecord
  2
*Model_Space
340
22
  0
BLOCK_RECORD
  5
1B
330
1
100
AcDbSymbolTableRecord
100
AcDbBlockTableRecord
  2
*Paper_Space
340
1E
  0
BLOCK_RECORD
  5
23
330
1
100
AcDbSymbolTableRecord
100
AcDbBlockTableRecord
  2
*Paper_Space0
340
26
  0
ENDTAB
  0
ENDSEC
  0
SECTION
  2
BLOCKS
  0
BLOCK
  5
1C
330
1B
100
AcDbEntity
 67
     1
  8
0
100
AcDbBlockBegin
  2
*Paper_Space
 70
     0
 10
0.0
 20
0.0
 30
0.0
  3
*Paper_Space
  1

  0
ENDBLK
  5
1D
330
1B
100
AcDbEntity
  8
0
100
AcDbBlockEnd
  0
BLOCK
  5
20
330
1F
100
AcDbEntity
  8
0
100
AcDbBlockBegin
  2
*Model_Space
 70
     0
 10
0.0
 20
0.0
 30
0.0
  3
*Model_Space
  1

  0
ENDBLK
  5
21
330
1F
100
AcDbEntity
  8
0
100
AcDbBlockEnd
  0
BLOCK
  5
24
330
23
100
AcDbEntity
 67
     1
  8
0
100
AcDbBlockBegin
  2
*Paper_Space0
 70
     0
 10
0.0
 20
0.0
 30
0.0
  3
*Paper_Space0
  1

  0
ENDBLK
  5
25
330
23
100
AcDbEntity
  8
0
100
AcDbBlockEnd
  0
ENDSEC
  0
SECTION
  2
ENTITIES
  0
LINE
  5
A9
330
1F
100
AcDbEntity
  8
0
  6
Continuous
 62
     1
100
AcDbLine
 10
142.02403071
 20
158.616280861
 30
0.0
 11
142.02403071
 21
144.616280861
 31
0.0
  0
LINE
  5
AA
330
1F
100
AcDbEntity
  8
0
  6
Continuous
 62
     1
100
AcDbLine
 10
182.02403071
 20
144.616280861
 30
0.0
 11
182.02403071
 21
158.616280861
 31
0.0
  0
LINE
  5
AB
330
1F
100
AcDbEntity
  8
0
  6
Continuous
 62
     1
100
AcDbLine
 10
182.02403071
 20
158.616280861
 30
0.0
 11
142.02403071
 21
158.616280861
 31
0.0
  0
TEXT
  5
AC
330
1F
100
AcDbEntity
  8
0
  6
Continuous
 62
     1
100
AcDbText
 10
158.27403071
 20
150.416280861
 30
0.0
 40
2.5
  1
注　意
 41
1.0
  7
KANJI0
100
AcDbText
  0
LINE
  5
AE
330
1F
100
AcDbEntity
  8
0
  6
Continuous
 62
     1
100
AcDbLine
 10
142.02403071
 20
144.616280861
 30
0.0
 11
182.02403071
 21
144.616280861
 31
0.0
  0
LINE
  5
AF
330
1F
100
AcDbEntity
  8
0
  6
Continuous
 62
     2
100
AcDbLine
 10
125.52403071
 20
164.616280861
 30
0.0
 11
125.52403071
 21
138.616280861
 31
0.0
  0
LINE
  5
B0
330
1F
100
AcDbEntity
  8
0
  6
Continuous
 62
     2
100
AcDbLine
 10
125.52403071
 20
101.616280861
 30
0.0
 11
125.52403071
 21
51.616280861
 31
0.0
  0
LINE
  5
B2
330
1F
100
AcDbEntity
  8
0
  6
LTYPE1
 62
     1
100
AcDbLine
 10
135.52403071
 20
145.616280861
 30
0.0
 11
135.52403071
 21
136.566280861
 31
0.0
  0
LINE
  5
B4
330
1F
100
AcDbEntity
  8
0
  6
LTYPE2
 62
     1
100
AcDbLine
 10
134.02403071
 20
138.616280861
 30
0.0
 11
134.02403071
 21
143.616280861
 31
0.0
  0
LINE
  5
B5
330
1F
100
AcDbEntity
  8
0
  6
LTYPE2
 62
     1
100
AcDbLine
 10
134.32403071
 20
138.616280861
 30
0.0
 11
134.32403071
 21
143.616280861
 31
0.0
  0
LINE
  5
B6
330
1F
100
AcDbEntity
  8
0
  6
LTYPE2
 62
     1
100
AcDbLine
 10
136.72403071
 20
143.616280861
 30
0.0
 11
136.72403071
 21
138.616280861
 31
0.0
  0
LINE
  5
B7
330
1F
100
AcDbEntity
  8
0
  6
LTYPE2
 62
     1
100
AcDbLine
 10
137.02403071
 20
138.616280861
 30
0.0
 11
137.02403071
 21
143.616280861
 31
0.0
  0
LINE
  5
B8
330
1F
100
AcDbEntity
  8
0
  6
LTYPE2
 62
     1
100
AcDbLine
 10
134.32403071
 20
143.616280861
 30
0.0
 11
136.72403071
 21
143.616280861
 31
0.0
  0
LINE
  5
B9
330
1F
100
AcDbEntity
  8
0
  6
LTYPE1
 62
     1
100
AcDbLine
 10
185.52403071
 20
145.616280861
 30
0.0
 11
185.52403071
 21
136.566280861
 31
0.0
  0
LINE
  5
BA
330
1F
100
AcDbEntity
  8
0
  6
LTYPE2
 62
     1
100
AcDbLine
 10
184.02403071
 20
138.616280861
 30
0.0
 11
184.02403071
 21
143.616280861
 31
0.0
  0
LINE
  5
BB
330
1F
100
AcDbEntity
  8
0
  6
LTYPE2
 62
     1
100
AcDbLine
 10
184.32403071
 20
138.616280861
 30
0.0
 11
184.32403071
 21
143.616280861
 31
0.0
  0
LINE
  5
BC
330
1F
100
AcDbEntity
  8
0
  6
LTYPE2
 62
     1
100
AcDbLine
 10
186.72403071
 20
143.616280861
 30
0.0
 11
186.72403071
 21
138.616280861
 31
0.0
  0
LINE
  5
BD
330
1F
100
AcDbEntity
  8
0
  6
LTYPE2
 62
     1
100
AcDbLine
 10
187.02403071
 20
138.616280861
 30
0.0
 11
187.02403071
 21
143.616280861
 31
0.0
  0
LINE
  5
BE
330
1F
100
AcDbEntity
  8
0
  6
LTYPE2
 62
     1
100
AcDbLine
 10
184.32403071
 20
143.616280861
 30
0.0
 11
186.72403071
 21
143.616280861
 31
0.0
  0
CIRCLE
  5
BF
330
1F
100
AcDbEntity
  8
0
  6
Continuous
 62
     1
100
AcDbCircle
 10
185.52403071
 20
61.616280861
 30
0.0
 40
1.2
  0
ARC
  5
C0
330
1F
100
AcDbEntity
  8
0
  6
Continuous
 62
     1
100
AcDbCircle
 10
185.52403071
 20
61.616280861
 30
0.0
 40
1.5
100
AcDbArc
 50
60.0
 51
30.0
  0
LINE
  5
C1
330
1F
100
AcDbEntity
  8
0
  6
LTYPE1
 62
     1
100
AcDbLine
 10
185.52403071
 20
64.116280861
 30
0.0
 11
185.52403071
 21
59.116280861
 31
0.0
  0
LINE
  5
C2
330
1F
100
AcDbEntity
  8
0
  6
LTYPE1
 62
     1
100
AcDbLine
 10
183.02403071
 20
61.616280861
 30
0.0
 11
188.02403071
 21
61.616280861
 31
0.0
  0
CIRCLE
  5
C3
330
1F
100
AcDbEntity
  8
0
  6
Continuous
 62
     1
100
AcDbCircle
 10
185.52403071
 20
91.616280861
 30
0.0
 40
1.2
  0
ARC
  5
C4
330
1F
100
AcDbEntity
  8
0
  6
Continuous
 62
     1
100
AcDbCircle
 10
185.52403071
 20
91.616280861
 30
0.0
 40
1.5
100
AcDbArc
 50
60.0
 51
30.0
  0
LINE
  5
C5
330
1F
100
AcDbEntity
  8
0
  6
LTYPE1
 62
     1
100
AcDbLine
 10
185.52403071
 20
94.116280861
 30
0.0
 11
185.52403071
 21
89.116280861
 31
0.0
  0
LINE
  5
C6
330
1F
100
AcDbEntity
  8
0
  6
LTYPE1
 62
     1
100
AcDbLine
 10
183.02403071
 20
91.616280861
 30
0.0
 11
188.02403071
 21
91.616280861
 31
0.0
  0
CIRCLE
  5
C7
330
1F
100
AcDbEntity
  8
0
  6
Continuous
 62
     1
100
AcDbCircle
 10
135.52403071
 20
91.616280861
 30
0.0
 40
1.2
  0
ARC
  5
C8
330
1F
100
AcDbEntity
  8
0
  6
Continuous
 62
     1
100
AcDbCircle
 10
135.52403071
 20
91.616280861
 30
0.0
 40
1.5
100
AcDbArc
 50
60.0
 51
30.0
  0
LINE
  5
C9
330
1F
100
AcDbEntity
  8
0
  6
LTYPE1
 62
     1
100
AcDbLine
 10
135.52403071
 20
94.116280861
 30
0.0
 11
135.52403071
 21
89.116280861
 31
0.0
  0
LINE
  5
CA
330
1F
100
AcDbEntity
  8
0
  6
LTYPE1
 62
     1
100
AcDbLine
 10
133.02403071
 20
91.616280861
 30
0.0
 11
138.02403071
 21
91.616280861
 31
0.0
  0
CIRCLE
  5
CB
330
1F
100
AcDbEntity
  8
0
  6
Continuous
 62
     1
100
AcDbCircle
 10
135.52403071
 20
61.616280861
 30
0.0
 40
1.2
  0
ARC
  5
CC
330
1F
100
AcDbEntity
  8
0
  6
Continuous
 62
     1
100
AcDbCircle
 10
135.52403071
 20
61.616280861
 30
0.0
 40
1.5
100
AcDbArc
 50
60.0
 51
30.0
  0
LINE
  5
CD
330
1F
100
AcDbEntity
  8
0
  6
LTYPE1
 62
     1
100
AcDbLine
 10
135.52403071
 20
64.116280861
 30
0.0
 11
135.52403071
 21
59.116280861
 31
0.0
  0
LINE
  5
CE
330
1F
100
AcDbEntity
  8
0
  6
LTYPE1
 62
     1
100
AcDbLine
 10
133.02403071
 20
61.616280861
 30
0.0
 11
138.02403071
 21
61.616280861
 31
0.0
  0
LINE
  5
CF
330
1F
100
AcDbEntity
  8
0
  6
Continuous
 62
     1
100
AcDbLine
 10
250.81403071
 20
52.616280861
 30
0.0
 11
238.31403071
 21
52.616280861
 31
0.0
  0
LINE
  5
D0
330
1F
100
AcDbEntity
  8
0
  6
Continuous
 62
     1
100
AcDbLine
 10
238.31403071
 20
52.616280861
 30
0.0
 11
238.31403071
 21
100.956280861
 31
0.0
  0
LINE
  5
D1
330
1F
100
AcDbEntity
  8
0
  6
Continuous
 62
     1
100
AcDbLine
 10
238.31403071
 20
100.956280861
 30
0.0
 11
250.81403071
 21
100.956280861
 31
0.0
  0
LINE
  5
D2
330
1F
100
AcDbEntity
  8
0
  6
Continuous
 62
     1
100
AcDbLine
 10
250.81403071
 20
100.956280861
 30
0.0
 11
250.81403071
 21
52.616280861
 31
0.0
  0
CIRCLE
  5
D3
330
1F
100
AcDbEntity
  8
0
  6
Continuous
 62
     1
100
AcDbCircle
 10
244.31403071
 20
57.736280861
 30
0.0
 40
3.0
  0
CIRCLE
  5
D4
330
1F
100
AcDbEntity
  8
0
  6
Continuous
 62
     1
100
AcDbCircle
 10
244.31403071
 20
65.356280861
 30
0.0
 40
3.0
  0
CIRCLE
  5
D5
330
1F
100
AcDbEntity
  8
0
  6
Continuous
 62
     1
100
AcDbCircle
 10
244.31403071
 20
72.976280861
 30
0.0
 40
3.0
  0
CIRCLE
  5
D6
330
1F
100
AcDbEntity
  8
0
  6
Continuous
 62
     1
100
AcDbCircle
 10
244.31403071
 20
80.596280861
 30
0.0
 40
3.0
  0
CIRCLE
  5
D7
330
1F
100
AcDbEntity
  8
0
  6
Continuous
 62
     1
100
AcDbCircle
 10
244.31403071
 20
88.216280861
 30
0.0
 40
3.0
  0
CIRCLE
  5
D8
330
1F
100
AcDbEntity
  8
0
  6
Continuous
 62
     1
100
AcDbCircle
 10
244.31403071
 20
95.836280861
 30
0.0
 40
3.0
  0
LINE
  5
D9
330
1F
100
AcDbEntity
  8
0
  6
Continuous
 62
     1
100
AcDbLine
 10
250.81403071
 20
62.256280861
 30
0.0
 11
238.31403071
 21
62.256280861
 31
0.0
  0
LINE
  5
DA
330
1F
100
AcDbEntity
  8
0
  6
Continuous
 62
     1
100
AcDbLine
 10
238.31403071
 20
60.836280861
 30
0.0
 11
250.81403071
 21
60.836280861
 31
0.0
  0
LINE
  5
DB
330
1F
100
AcDbEntity
  8
0
  6
Continuous
 62
     1
100
AcDbLine
 10
250.81403071
 20
69.876280861
 30
0.0
 11
238.31403071
 21
69.876280861
 31
0.0
  0
LINE
  5
DC
330
1F
100
AcDbEntity
  8
0
  6
Continuous
 62
     1
100
AcDbLine
 10
238.31403071
 20
68.456280861
 30
0.0
 11
250.81403071
 21
68.456280861
 31
0.0
  0
LINE
  5
DD
330
1F
100
AcDbEntity
  8
0
  6
Continuous
 62
     1
100
AcDbLine
 10
250.81403071
 20
77.496280861
 30
0.0
 11
238.31403071
 21
77.496280861
 31
0.0
  0
LINE
  5
DE
330
1F
100
AcDbEntity
  8
0
  6
Continuous
 62
     1
100
AcDbLine
 10
238.31403071
 20
76.076280861
 30
0.0
 11
250.81403071
 21
76.076280861
 31
0.0
  0
LINE
  5
DF
330
1F
100
AcDbEntity
  8
0
  6
Continuous
 62
     1
100
AcDbLine
 10
250.81403071
 20
85.116280861
 30
0.0
 11
238.31403071
 21
85.116280861
 31
0.0
  0
LINE
  5
E0
330
1F
100
AcDbEntity
  8
0
  6
Continuous
 62
     1
100
AcDbLine
 10
238.31403071
 20
83.696280861
 30
0.0
 11
250.81403071
 21
83.696280861
 31
0.0
  0
LINE
  5
E1
330
1F
100
AcDbEntity
  8
0
  6
Continuous
 62
     1
100
AcDbLine
 10
250.81403071
 20
92.736280861
 30
0.0
 11
238.31403071
 21
92.736280861
 31
0.0
  0
LINE
  5
E2
330
1F
100
AcDbEntity
  8
0
  6
Continuous
 62
     1
100
AcDbLine
 10
238.31403071
 20
91.316280861
 30
0.0
 11
250.81403071
 21
91.316280861
 31
0.0
  0
LINE
  5
E3
330
1F
100
AcDbEntity
  8
0
  6
Continuous
 62
     1
100
AcDbLine
 10
250.81403071
 20
100.356280861
 30
0.0
 11
238.31403071
 21
100.356280861
 31
0.0
  0
LINE
  5
E4
330
1F
100
AcDbEntity
  8
0
  6
Continuous
 62
     1
100
AcDbLine
 10
238.31403071
 20
98.936280861
 30
0.0
 11
250.81403071
 21
98.936280861
 31
0.0
  0
LINE
  5
E5
330
1F
100
AcDbEntity
  8
0
  6
Continuous
 62
     1
100
AcDbLine
 10
245.728244273
 20
97.250494423
 30
0.0
 11
242.899817148
 21
94.422067298
 31
0.0
  0
LINE
  5
E6
330
1F
100
AcDbEntity
  8
0
  6
Continuous
 62
     1
100
AcDbLine
 10
242.899817148
 20
97.250494423
 30
0.0
 11
245.728244273
 21
94.422067298
 31
0.0
  0
LINE
  5
E7
330
1F
100
AcDbEntity
  8
0
  6
Continuous
 62
     1
100
AcDbLine
 10
245.728244273
 20
89.630494423
 30
0.0
 11
242.899817148
 21
86.802067298
 31
0.0
  0
LINE
  5
E8
330
1F
100
AcDbEntity
  8
0
  6
Continuous
 62
     1
100
AcDbLine
 10
242.899817148
 20
89.630494423
 30
0.0
 11
245.728244273
 21
86.802067298
 31
0.0
  0
LINE
  5
E9
330
1F
100
AcDbEntity
  8
0
  6
Continuous
 62
     1
100
AcDbLine
 10
245.728244273
 20
82.010494423
 30
0.0
 11
242.899817148
 21
79.182067298
 31
0.0
  0
LINE
  5
EA
330
1F
100
AcDbEntity
  8
0
  6
Continuous
 62
     1
100
AcDbLine
 10
242.899817148
 20
82.010494423
 30
0.0
 11
245.728244273
 21
79.182067298
 31
0.0
  0
LINE
  5
EB
330
1F
100
AcDbEntity
  8
0
  6
Continuous
 62
     1
100
AcDbLine
 10
245.728244273
 20
74.390494423
 30
0.0
 11
242.899817148
 21
71.562067298
 31
0.0
  0
LINE
  5
EC
330
1F
100
AcDbEntity
  8
0
  6
Continuous
 62
     1
100
AcDbLine
 10
242.899817148
 20
74.390494423
 30
0.0
 11
245.728244273
 21
71.562067298
 31
0.0
  0
LINE
  5
ED
330
1F
100
AcDbEntity
  8
0
  6
Continuous
 62
     1
100
AcDbLine
 10
245.728244273
 20
66.770494423
 30
0.0
 11
242.899817148
 21
63.942067298
 31
0.0
  0
LINE
  5
EE
330
1F
100
AcDbEntity
  8
0
  6
Continuous
 62
     1
100
AcDbLine
 10
242.899817148
 20
66.770494423
 30
0.0
 11
245.728244273
 21
63.942067298
 31
0.0
  0
LINE
  5
EF
330
1F
100
AcDbEntity
  8
0
  6
Continuous
 62
     1
100
AcDbLine
 10
245.728244273
 20
59.150494423
 30
0.0
 11
242.899817148
 21
56.322067298
 31
0.0
  0
LINE
  5
F0
330
1F
100
AcDbEntity
  8
0
  6
Continuous
 62
     1
100
AcDbLine
 10
242.899817148
 20
59.150494423
 30
0.0
 11
245.728244273
 21
56.322067298
 31
0.0
  0
LINE
  5
F1
330
1F
100
AcDbEntity
  8
0
  6
Continuous
 62
     1
100
AcDbLine
 10
250.81403071
 20
54.636280861
 30
0.0
 11
238.31403071
 21
54.636280861
 31
0.0
  0
LINE
  5
F2
330
1F
100
AcDbEntity
  8
0
  6
Continuous
 62
     1
100
AcDbLine
 10
238.31403071
 20
53.216280861
 30
0.0
 11
250.81403071
 21
53.216280861
 31
0.0
  0
LINE
  5
F3
330
1F
100
AcDbEntity
  8
0
  6
Continuous
 62
     1
100
AcDbLine
 10
239.81403071
 20
98.936280861
 30
0.0
 11
239.81403071
 21
92.736280861
 31
0.0
  0
LINE
  5
F4
330
1F
100
AcDbEntity
  8
0
  6
Continuous
 62
     1
100
AcDbLine
 10
239.81403071
 20
91.316280861
 30
0.0
 11
239.81403071
 21
85.116280861
 31
0.0
  0
LINE
  5
F5
330
1F
100
AcDbEntity
  8
0
  6
Continuous
 62
     1
100
AcDbLine
 10
239.81403071
 20
83.696280861
 30
0.0
 11
239.81403071
 21
77.496280861
 31
0.0
  0
LINE
  5
F6
330
1F
100
AcDbEntity
  8
0
  6
Continuous
 62
     1
100
AcDbLine
 10
239.81403071
 20
76.076280861
 30
0.0
 11
239.81403071
 21
69.876280861
 31
0.0
  0
LINE
  5
F7
330
1F
100
AcDbEntity
  8
0
  6
Continuous
 62
     1
100
AcDbLine
 10
239.81403071
 20
68.456280861
 30
0.0
 11
239.81403071
 21
62.256280861
 31
0.0
  0
LINE
  5
F8
330
1F
100
AcDbEntity
  8
0
  6
Continuous
 62
     1
100
AcDbLine
 10
239.81403071
 20
60.836280861
 30
0.0
 11
239.81403071
 21
54.636280861
 31
0.0
  0
LINE
  5
F9
330
1F
100
AcDbEntity
  8
0
  6
Continuous
 62
     1
100
AcDbLine
 10
249.31403071
 20
60.836280861
 30
0.0
 11
249.31403071
 21
54.636280861
 31
0.0
  0
LINE
  5
FA
330
1F
100
AcDbEntity
  8
0
  6
Continuous
 62
     1
100
AcDbLine
 10
249.31403071
 20
68.456280861
 30
0.0
 11
249.31403071
 21
62.256280861
 31
0.0
  0
LINE
  5
FB
330
1F
100
AcDbEntity
  8
0
  6
Continuous
 62
     1
100
AcDbLine
 10
249.31403071
 20
76.076280861
 30
0.0
 11
249.31403071
 21
69.876280861
 31
0.0
  0
LINE
  5
FC
330
1F
100
AcDbEntity
  8
0
  6
Continuous
 62
     1
100
AcDbLine
 10
249.31403071
 20
83.696280861
 30
0.0
 11
249.31403071
 21
77.496280861
 31
0.0
  0
LINE
  5
FD
330
1F
100
AcDbEntity
  8
0
  6
Continuous
 62
     1
100
AcDbLine
 10
249.31403071
 20
91.316280861
 30
0.0
 11
249.31403071
 21
85.116280861
 31
0.0
  0
LINE
  5
FE
330
1F
100
AcDbEntity
  8
0
  6
Continuous
 62
     1
100
AcDbLine
 10
249.31403071
 20
98.936280861
 30
0.0
 11
249.31403071
 21
92.736280861
 31
0.0
  0
LINE
  5
FF
330
1F
100
AcDbEntity
  8
0
  6
Continuous
 62
     1
100
AcDbLine
 10
239.81403071
 20
100.326280861
 30
0.0
 11
239.81403071
 21
100.956280861
 31
0.0
  0
LINE
  5
100
330
1F
100
AcDbEntity
  8
0
  6
Continuous
 62
     1
100
AcDbLine
 10
249.31403071
 20
100.326280861
 30
0.0
 11
249.31403071
 21
100.956280861
 31
0.0
  0
LINE
  5
101
330
1F
100
AcDbEntity
  8
0
  6
Continuous
 62
     1
100
AcDbLine
 10
239.81403071
 20
52.616280861
 30
0.0
 11
239.81403071
 21
53.216280861
 31
0.0
  0
LINE
  5
102
330
1F
100
AcDbEntity
  8
0
  6
Continuous
 62
     1
100
AcDbLine
 10
249.31403071
 20
52.616280861
 30
0.0
 11
249.31403071
 21
53.216280861
 31
0.0
  0
LWPOLYLINE
  5
104
330
1F
100
AcDbEntity
  8
0
  6
Continuous
 62
     2
100
AcDbPolyline
 90
     4
 70
   129
 43
0.0
 10
236.31403071
 20
51.616280861
 10
262.31403071
 20
51.616280861
 10
262.31403071
 20
101.616280861
 10
236.31403071
 20
101.616280861
  0
LINE
  5
105
330
1F
100
AcDbEntity
  8
0
  6
Continuous
 62
     1
100
AcDbLine
 10
134.52403071
 20
61.616280861
 30
0.0
 11
116.58403071
 21
61.616280861
 31
0.0
  0
LINE
  5
106
330
1F
100
AcDbEntity
  8
0
  6
Continuous
 62
     1
100
AcDbLine
 10
118.58403071
 20
61.616280861
 30
0.0
 11
117.936983098
 21
59.201466295
 31
0.0
  0
LINE
  5
107
330
1F
100
AcDbEntity
  8
0
  6
Continuous
 62
     1
100
AcDbLine
 10
118.58403071
 20
61.616280861
 30
0.0
 11
119.231078323
 21
59.201466295
 31
0.0
  0
LWPOLYLINE
  5
109
330
1F
100
AcDbEntity
  8
0
  6
Continuous
 62
     1
100
AcDbPolyline
 90
     3
 70
   128
 43
0.0
 10
118.58403071
 20
61.616280861
 10
118.58403071
 20
51.616280861
 10
119.231078323
 20
54.031095426
  0
LINE
  5
10A
330
1F
100
AcDbEntity
  8
0
  6
Continuous
 62
     1
100
AcDbLine
 10
118.58403071
 20
51.616280861
 30
0.0
 11
117.936983098
 21
54.031095426
 31
0.0
  0
LINE
  5
10B
330
1F
100
AcDbEntity
  8
0
  6
Continuous
 62
     1
100
AcDbLine
 10
124.52403071
 20
51.616280861
 30
0.0
 11
116.58403071
 21
51.616280861
 31
0.0
  0
TEXT
  5
10C
330
1F
100
AcDbEntity
  8
0
  6
Continuous
 62
     1
100
AcDbText
 10
117.58403071
 20
53.716280861
 30
0.0
 40
3.0
  1
１０
 50
90.0
 41
0.933333333
 51
15.0
  7
KANJI1
100
AcDbText
  0
LINE
  5
10E
330
1F
100
AcDbEntity
  8
0
  6
Continuous
 62
     1
100
AcDbLine
 10
134.52403071
 20
91.616280861
 30
0.0
 11
116.58403071
 21
91.616280861
 31
0.0
  0
LINE
  5
10F
330
1F
100
AcDbEntity
  8
0
  6
Continuous
 62
     1
100
AcDbLine
 10
118.58403071
 20
91.616280861
 30
0.0
 11
117.936983098
 21
89.201466295
 31
0.0
  0
LINE
  5
110
330
1F
100
AcDbEntity
  8
0
  6
Continuous
 62
     1
100
AcDbLine
 10
118.58403071
 20
91.616280861
 30
0.0
 11
119.231078323
 21
89.201466295
 31
0.0
  0
LWPOLYLINE
  5
112
330
1F
100
AcDbEntity
  8
0
  6
Continuous
 62
     1
100
AcDbPolyline
 90
     3
 70
   128
 43
0.0
 10
118.58403071
 20
91.616280861
 10
118.58403071
 20
61.616280861
 10
119.231078323
 20
64.031095426
  0
LINE
  5
113
330
1F
100
AcDbEntity
  8
0
  6
Continuous
 62
     1
100
AcDbLine
 10
118.58403071
 20
61.616280861
 30
0.0
 11
117.936983098
 21
64.031095426
 31
0.0
  0
LINE
  5
114
330
1F
100
AcDbEntity
  8
0
  6
Continuous
 62
     1
100
AcDbLine
 10
134.52403071
 20
61.616280861
 30
0.0
 11
116.58403071
 21
61.616280861
 31
0.0
  0
TEXT
  5
115
330
1F
100
AcDbEntity
  8
0
  6
Continuous
 62
     1
100
AcDbText
 10
117.58403071
 20
73.716280861
 30
0.0
 40
3.0
  1
３０
 50
90.0
 41
0.933333333
 51
15.0
  7
KANJI1
100
AcDbText
  0
LINE
  5
116
330
1F
100
AcDbEntity
  8
0
  6
Continuous
 62
     1
100
AcDbLine
 10
124.52403071
 20
101.616280861
 30
0.0
 11
108.77403071
 21
101.616280861
 31
0.0
  0
LINE
  5
117
330
1F
100
AcDbEntity
  8
0
  6
Continuous
 62
     1
100
AcDbLine
 10
110.77403071
 20
101.616280861
 30
0.0
 11
110.126983098
 21
99.201466295
 31
0.0
  0
LINE
  5
118
330
1F
100
AcDbEntity
  8
0
  6
Continuous
 62
     1
100
AcDbLine
 10
110.77403071
 20
101.616280861
 30
0.0
 11
111.421078323
 21
99.201466295
 31
0.0
  0
LWPOLYLINE
  5
11A
330
1F
100
AcDbEntity
  8
0
  6
Continuous
 62
     1
100
AcDbPolyline
 90
     3
 70
   128
 43
0.0
 10
110.77403071
 20
101.616280861
 10
110.77403071
 20
51.616280861
 10
111.421078323
 20
54.031095426
  0
LINE
  5
11B
330
1F
100
AcDbEntity
  8
0
  6
Continuous
 62
     1
100
AcDbLine
 10
110.77403071
 20
51.616280861
 30
0.0
 11
110.126983098
 21
54.031095426
 31
0.0
  0
LINE
  5
11C
330
1F
100
AcDbEntity
  8
0
  6
Continuous
 62
     1
100
AcDbLine
 10
124.52403071
 20
51.616280861
 30
0.0
 11
108.77403071
 21
51.616280861
 31
0.0
  0
TEXT
  5
11D
330
1F
100
AcDbEntity
  8
0
  6
Continuous
 62
     1
100
AcDbText
 10
109.77403071
 20
73.716280861
 30
0.0
 40
3.0
  1
５０
 50
90.0
 41
0.933333333
 51
15.0
  7
KANJI1
100
AcDbText
  0
LINE
  5
11E
330
1F
100
AcDbEntity
  8
0
  6
Continuous
 62
     1
100
AcDbLine
 10
135.52403071
 20
60.616280861
 30
0.0
 11
135.52403071
 21
43.066280861
 31
0.0
  0
LINE
  5
11F
330
1F
100
AcDbEntity
  8
0
  6
Continuous
 62
     1
100
AcDbLine
 10
135.52403071
 20
45.066280861
 30
0.0
 11
133.109216145
 21
45.713328473
 31
0.0
  0
LINE
  5
120
330
1F
100
AcDbEntity
  8
0
  6
Continuous
 62
     1
100
AcDbLine
 10
135.52403071
 20
45.066280861
 30
0.0
 11
133.109216145
 21
44.419233248
 31
0.0
  0
LWPOLYLINE
  5
122
330
1F
100
AcDbEntity
  8
0
  6
Continuous
 62
     1
100
AcDbPolyline
 90
     3
 70
   128
 43
0.0
 10
135.52403071
 20
45.066280861
 10
125.52403071
 20
45.066280861
 10
127.938845276
 20
44.419233248
  0
LINE
  5
123
330
1F
100
AcDbEntity
  8
0
  6
Continuous
 62
     1
100
AcDbLine
 10
125.52403071
 20
45.066280861
 30
0.0
 11
127.938845276
 21
45.713328473
 31
0.0
  0
LINE
  5
124
330
1F
100
AcDbEntity
  8
0
  6
Continuous
 62
     1
100
AcDbLine
 10
125.52403071
 20
50.616280861
 30
0.0
 11
125.52403071
 21
43.066280861
 31
0.0
  0
TEXT
  5
125
330
1F
100
AcDbEntity
  8
0
  6
Continuous
 62
     1
100
AcDbText
 10
127.62403071
 20
46.066280861
 30
0.0
 40
3.0
  1
１０
 41
0.933333333
 51
15.0
  7
KANJI1
100
AcDbText
  0
LINE
  5
126
330
1F
100
AcDbEntity
  8
0
  6
Continuous
 62
     1
100
AcDbLine
 10
135.52403071
 20
60.616280861
 30
0.0
 11
135.52403071
 21
43.066280861
 31
0.0
  0
LINE
  5
127
330
1F
100
AcDbEntity
  8
0
  6
Continuous
 62
     1
100
AcDbLine
 10
135.52403071
 20
45.066280861
 30
0.0
 11
137.938845276
 21
44.419233248
 31
0.0
  0
LINE
  5
128
330
1F
100
AcDbEntity
  8
0
  6
Continuous
 62
     1
100
AcDbLine
 10
135.52403071
 20
45.066280861
 30
0.0
 11
137.938845276
 21
45.713328473
 31
0.0
  0
LWPOLYLINE
  5
12A
330
1F
100
AcDbEntity
  8
0
  6
Continuous
 62
     1
100
AcDbPolyline
 90
     3
 70
   128
 43
0.0
 10
135.52403071
 20
45.066280861
 10
185.52403071
 20
45.066280861
 10
183.109216145
 20
45.713328473
  0
LINE
  5
12B
330
1F
100
AcDbEntity
  8
0
  6
Continuous
 62
     1
100
AcDbLine
 10
185.52403071
 20
45.066280861
 30
0.0
 11
183.109216145
 21
44.419233248
 31
0.0
  0
LINE
  5
12C
330
1F
100
AcDbEntity
  8
0
  6
Continuous
 62
     1
100
AcDbLine
 10
185.52403071
 20
60.616280861
 30
0.0
 11
185.52403071
 21
43.066280861
 31
0.0
  0
TEXT
  5
12D
330
1F
100
AcDbEntity
  8
0
  6
Continuous
 62
     1
100
AcDbText
 10
157.62403071
 20
46.066280861
 30
0.0
 40
3.0
  1
５０
 41
0.933333333
 51
15.0
  7
KANJI1
100
AcDbText
  0
LINE
  5
12E
330
1F
100
AcDbEntity
  8
0
  6
Continuous
 62
     2
100
AcDbLine
 10
125.52403071
 20
164.616280861
 30
0.0
 11
195.52403071
 21
164.616280861
 31
0.0
  0
LINE
  5
12F
330
1F
100
AcDbEntity
  8
0
  6
Continuous
 62
     2
100
AcDbLine
 10
195.52403071
 20
164.616280861
 30
0.0
 11
195.52403071
 21
138.616280861
 31
0.0
  0
LINE
  5
130
330
1F
100
AcDbEntity
  8
0
  6
Continuous
 62
     2
100
AcDbLine
 10
195.52403071
 20
138.616280861
 30
0.0
 11
125.52403071
 21
138.616280861
 31
0.0
  0
LINE
  5
131
330
1F
100
AcDbEntity
  8
0
  6
Continuous
 62
     2
100
AcDbLine
 10
125.52403071
 20
101.616280861
 30
0.0
 11
195.52403071
 21
101.616280861
 31
0.0
  0
LINE
  5
132
330
1F
100
AcDbEntity
  8
0
  6
Continuous
 62
     2
100
AcDbLine
 10
195.52403071
 20
101.616280861
 30
0.0
 11
195.52403071
 21
51.616280861
 31
0.0
  0
LINE
  5
133
330
1F
100
AcDbEntity
  8
0
  6
Continuous
 62
     2
100
AcDbLine
 10
195.52403071
 20
51.616280861
 30
0.0
 11
125.52403071
 21
51.616280861
 31
0.0
  0
LINE
  5
134
330
1F
100
AcDbEntity
  8
0
  6
Continuous
 62
     1
100
AcDbLine
 10
195.52403071
 20
153.116280861
 30
0.0
 11
205.82403071
 21
153.116280861
 31
0.0
  0
LINE
  5
135
330
1F
100
AcDbEntity
  8
0
  6
Continuous
 62
     1
100
AcDbLine
 10
205.82403071
 20
153.116280861
 30
0.0
 11
205.82403071
 21
140.616280861
 31
0.0
  0
LINE
  5
136
330
1F
100
AcDbEntity
  8
0
  6
Continuous
 62
     1
100
AcDbLine
 10
205.82403071
 20
140.616280861
 30
0.0
 11
195.52403071
 21
140.616280861
 31
0.0
  0
LINE
  5
137
330
1F
100
AcDbEntity
  8
0
  6
Continuous
 62
     1
100
AcDbLine
 10
195.52403071
 20
140.616280861
 30
0.0
 11
195.52403071
 21
153.116280861
 31
0.0
  0
LINE
  5
138
330
1F
100
AcDbEntity
  8
0
  6
LTYPE2
 62
     1
100
AcDbLine
 10
198.82403071
 20
153.116280861
 30
0.0
 11
198.82403071
 21
151.616280861
 31
0.0
  0
LINE
  5
139
330
1F
100
AcDbEntity
  8
0
  6
Continuous
 62
     1
100
AcDbLine
 10
198.82403071
 20
153.116280861
 30
0.0
 11
198.82403071
 21
151.616280861
 31
0.0
  0
LINE
  5
13A
330
1F
100
AcDbEntity
  8
0
  6
Continuous
 62
     1
100
AcDbLine
 10
198.82403071
 20
151.616280861
 30
0.0
 11
200.82403071
 21
151.616280861
 31
0.0
  0
LINE
  5
13B
330
1F
100
AcDbEntity
  8
0
  6
Continuous
 62
     1
100
AcDbLine
 10
200.82403071
 20
151.616280861
 30
0.0
 11
200.82403071
 21
142.116280861
 31
0.0
  0
LINE
  5
13C
330
1F
100
AcDbEntity
  8
0
  6
Continuous
 62
     1
100
AcDbLine
 10
200.82403071
 20
142.116280861
 30
0.0
 11
198.82403071
 21
142.116280861
 31
0.0
  0
LINE
  5
13D
330
1F
100
AcDbEntity
  8
0
  6
Continuous
 62
     1
100
AcDbLine
 10
198.82403071
 20
142.116280861
 30
0.0
 11
198.82403071
 21
140.616280861
 31
0.0
  0
LINE
  5
13E
330
1F
100
AcDbEntity
  8
0
  6
Continuous
 62
     1
100
AcDbLine
 10
195.52403071
 20
101.086280861
 30
0.0
 11
198.82403071
 21
101.086280861
 31
0.0
  0
LINE
  5
13F
330
1F
100
AcDbEntity
  8
0
  6
Continuous
 62
     1
100
AcDbLine
 10
198.82403071
 20
100.366280861
 30
0.0
 11
198.82403071
 21
101.086280861
 31
0.0
  0
LINE
  5
140
330
1F
100
AcDbEntity
  8
0
  6
Continuous
 62
     1
100
AcDbLine
 10
205.82403071
 20
98.986280861
 30
0.0
 11
205.82403071
 21
100.366280861
 31
0.0
  0
LINE
  5
141
330
1F
100
AcDbEntity
  8
0
  6
Continuous
 62
     1
100
AcDbLine
 10
205.82403071
 20
100.366280861
 30
0.0
 11
200.82403071
 21
100.366280861
 31
0.0
  0
LINE
  5
142
330
1F
100
AcDbEntity
  8
0
  6
Continuous
 62
     1
100
AcDbLine
 10
198.82403071
 20
100.366280861
 30
0.0
 11
200.82403071
 21
100.366280861
 31
0.0
  0
LINE
  5
143
330
1F
100
AcDbEntity
  8
0
  6
Continuous
 62
     1
100
AcDbLine
 10
198.82403071
 20
101.086280861
 30
0.0
 11
200.82403071
 21
101.086280861
 31
0.0
  0
LINE
  5
144
330
1F
100
AcDbEntity
  8
0
  6
Continuous
 62
     1
100
AcDbLine
 10
200.82403071
 20
101.086280861
 30
0.0
 11
200.82403071
 21
100.366280861
 31
0.0
  0
LINE
  5
145
330
1F
100
AcDbEntity
  8
0
  6
Continuous
 62
     1
100
AcDbLine
 10
205.82403071
 20
100.366280861
 30
0.0
 11
205.82403071
 21
98.936280861
 31
0.0
  0
LINE
  5
146
330
1F
100
AcDbEntity
  8
0
  6
Continuous
 62
     1
100
AcDbLine
 10
205.82403071
 20
98.936280861
 30
0.0
 11
200.82403071
 21
98.936280861
 31
0.0
  0
LINE
  5
147
330
1F
100
AcDbEntity
  8
0
  6
Continuous
 62
     1
100
AcDbLine
 10
200.82403071
 20
98.936280861
 30
0.0
 11
200.82403071
 21
92.736280861
 31
0.0
  0
LINE
  5
148
330
1F
100
AcDbEntity
  8
0
  6
Continuous
 62
     1
100
AcDbLine
 10
200.82403071
 20
92.736280861
 30
0.0
 11
205.82403071
 21
92.736280861
 31
0.0
  0
LINE
  5
149
330
1F
100
AcDbEntity
  8
0
  6
Continuous
 62
     1
100
AcDbLine
 10
201.82403071
 20
98.936280861
 30
0.0
 11
201.82403071
 21
92.736280861
 31
0.0
  0
LINE
  5
14A
330
1F
100
AcDbEntity
  8
0
  6
Continuous
 62
     1
100
AcDbLine
 10
201.82403071
 20
98.836280861
 30
0.0
 11
202.82403071
 21
98.836280861
 31
0.0
  0
LINE
  5
14B
330
1F
100
AcDbEntity
  8
0
  6
Continuous
 62
     1
100
AcDbLine
 10
202.82403071
 20
92.836280861
 30
0.0
 11
201.82403071
 21
92.836280861
 31
0.0
  0
LINE
  5
14C
330
1F
100
AcDbEntity
  8
0
  6
Continuous
 62
     1
100
AcDbLine
 10
202.82403071
 20
92.836280861
 30
0.0
 11
202.82403071
 21
98.836280861
 31
0.0
  0
LINE
  5
14D
330
1F
100
AcDbEntity
  8
0
  6
Continuous
 62
     1
100
AcDbLine
 10
202.82403071
 20
95.836280861
 30
0.0
 11
201.82403071
 21
96.836280861
 31
0.0
  0
LINE
  5
14E
330
1F
100
AcDbEntity
  8
0
  6
Continuous
 62
     1
100
AcDbLine
 10
202.82403071
 20
94.836280861
 30
0.0
 11
201.82403071
 21
95.836280861
 31
0.0
  0
ARC
  5
14F
330
1F
100
AcDbEntity
  8
0
  6
Continuous
 62
     1
100
AcDbCircle
 10
202.82403071
 20
97.336280861
 30
0.0
 40
1.5
100
AcDbArc
 50
0.0
 51
90.0
  0
ARC
  5
150
330
1F
100
AcDbEntity
  8
0
  6
Continuous
 62
     1
100
AcDbCircle
 10
202.82403071
 20
94.336280861
 30
0.0
 40
1.5
100
AcDbArc
 50
270.0
 51
0.0
  0
LINE
  5
151
330
1F
100
AcDbEntity
  8
0
  6
Continuous
 62
     1
100
AcDbLine
 10
204.32403071
 20
94.336280861
 30
0.0
 11
204.32403071
 21
97.336280861
 31
0.0
  0
LINE
  5
152
330
1F
100
AcDbEntity
  8
0
  6
Continuous
 62
     1
100
AcDbLine
 10
200.82403071
 20
98.936280861
 30
0.0
 11
198.82403071
 21
98.936280861
 31
0.0
  0
LINE
  5
153
330
1F
100
AcDbEntity
  8
0
  6
Continuous
 62
     1
100
AcDbLine
 10
198.82403071
 20
98.936280861
 30
0.0
 11
198.82403071
 21
92.736280861
 31
0.0
  0
LINE
  5
154
330
1F
100
AcDbEntity
  8
0
  6
Continuous
 62
     1
100
AcDbLine
 10
198.82403071
 20
92.736280861
 30
0.0
 11
200.82403071
 21
92.736280861
 31
0.0
  0
LINE
  5
155
330
1F
100
AcDbEntity
  8
0
  6
Continuous
 62
     1
100
AcDbLine
 10
205.82403071
 20
91.356280861
 30
0.0
 11
205.82403071
 21
92.736280861
 31
0.0
  0
LINE
  5
156
330
1F
100
AcDbEntity
  8
0
  6
Continuous
 62
     1
100
AcDbLine
 10
205.82403071
 20
92.736280861
 30
0.0
 11
205.82403071
 21
91.306280861
 31
0.0
  0
LINE
  5
157
330
1F
100
AcDbEntity
  8
0
  6
Continuous
 62
     1
100
AcDbLine
 10
205.82403071
 20
91.306280861
 30
0.0
 11
200.82403071
 21
91.306280861
 31
0.0
  0
LINE
  5
158
330
1F
100
AcDbEntity
  8
0
  6
Continuous
 62
     1
100
AcDbLine
 10
200.82403071
 20
91.306280861
 30
0.0
 11
200.82403071
 21
85.106280861
 31
0.0
  0
LINE
  5
159
330
1F
100
AcDbEntity
  8
0
  6
Continuous
 62
     1
100
AcDbLine
 10
200.82403071
 20
85.106280861
 30
0.0
 11
205.82403071
 21
85.106280861
 31
0.0
  0
LINE
  5
15A
330
1F
100
AcDbEntity
  8
0
  6
Continuous
 62
     1
100
AcDbLine
 10
201.82403071
 20
91.306280861
 30
0.0
 11
201.82403071
 21
85.106280861
 31
0.0
  0
LINE
  5
15B
330
1F
100
AcDbEntity
  8
0
  6
Continuous
 62
     1
100
AcDbLine
 10
201.82403071
 20
91.206280861
 30
0.0
 11
202.82403071
 21
91.206280861
 31
0.0
  0
LINE
  5
15C
330
1F
100
AcDbEntity
  8
0
  6
Continuous
 62
     1
100
AcDbLine
 10
202.82403071
 20
85.206280861
 30
0.0
 11
201.82403071
 21
85.206280861
 31
0.0
  0
LINE
  5
15D
330
1F
100
AcDbEntity
  8
0
  6
Continuous
 62
     1
100
AcDbLine
 10
202.82403071
 20
85.206280861
 30
0.0
 11
202.82403071
 21
91.206280861
 31
0.0
  0
LINE
  5
15E
330
1F
100
AcDbEntity
  8
0
  6
Continuous
 62
     1
100
AcDbLine
 10
202.82403071
 20
88.206280861
 30
0.0
 11
201.82403071
 21
89.206280861
 31
0.0
  0
LINE
  5
15F
330
1F
100
AcDbEntity
  8
0
  6
Continuous
 62
     1
100
AcDbLine
 10
202.82403071
 20
87.206280861
 30
0.0
 11
201.82403071
 21
88.206280861
 31
0.0
  0
ARC
  5
160
330
1F
100
AcDbEntity
  8
0
  6
Continuous
 62
     1
100
AcDbCircle
 10
202.82403071
 20
89.706280861
 30
0.0
 40
1.5
100
AcDbArc
 50
0.0
 51
90.0
  0
ARC
  5
161
330
1F
100
AcDbEntity
  8
0
  6
Continuous
 62
     1
100
AcDbCircle
 10
202.82403071
 20
86.706280861
 30
0.0
 40
1.5
100
AcDbArc
 50
270.0
 51
0.0
  0
LINE
  5
162
330
1F
100
AcDbEntity
  8
0
  6
Continuous
 62
     1
100
AcDbLine
 10
204.32403071
 20
86.706280861
 30
0.0
 11
204.32403071
 21
89.706280861
 31
0.0
  0
LINE
  5
163
330
1F
100
AcDbEntity
  8
0
  6
Continuous
 62
     1
100
AcDbLine
 10
200.82403071
 20
91.306280861
 30
0.0
 11
198.82403071
 21
91.306280861
 31
0.0
  0
LINE
  5
164
330
1F
100
AcDbEntity
  8
0
  6
Continuous
 62
     1
100
AcDbLine
 10
198.82403071
 20
91.306280861
 30
0.0
 11
198.82403071
 21
85.106280861
 31
0.0
  0
LINE
  5
165
330
1F
100
AcDbEntity
  8
0
  6
Continuous
 62
     1
100
AcDbLine
 10
198.82403071
 20
85.106280861
 30
0.0
 11
200.82403071
 21
85.106280861
 31
0.0
  0
LINE
  5
166
330
1F
100
AcDbEntity
  8
0
  6
Continuous
 62
     1
100
AcDbLine
 10
205.82403071
 20
83.726280861
 30
0.0
 11
205.82403071
 21
85.106280861
 31
0.0
  0
LINE
  5
167
330
1F
100
AcDbEntity
  8
0
  6
Continuous
 62
     1
100
AcDbLine
 10
205.82403071
 20
85.106280861
 30
0.0
 11
205.82403071
 21
83.676280861
 31
0.0
  0
LINE
  5
168
330
1F
100
AcDbEntity
  8
0
  6
Continuous
 62
     1
100
AcDbLine
 10
205.82403071
 20
83.676280861
 30
0.0
 11
200.82403071
 21
83.676280861
 31
0.0
  0
LINE
  5
169
330
1F
100
AcDbEntity
  8
0
  6
Continuous
 62
     1
100
AcDbLine
 10
200.82403071
 20
83.676280861
 30
0.0
 11
200.82403071
 21
77.476280861
 31
0.0
  0
LINE
  5
16A
330
1F
100
AcDbEntity
  8
0
  6
Continuous
 62
     1
100
AcDbLine
 10
200.82403071
 20
77.476280861
 30
0.0
 11
205.82403071
 21
77.476280861
 31
0.0
  0
LINE
  5
16B
330
1F
100
AcDbEntity
  8
0
  6
Continuous
 62
     1
100
AcDbLine
 10
201.82403071
 20
83.676280861
 30
0.0
 11
201.82403071
 21
77.476280861
 31
0.0
  0
LINE
  5
16C
330
1F
100
AcDbEntity
  8
0
  6
Continuous
 62
     1
100
AcDbLine
 10
201.82403071
 20
83.576280861
 30
0.0
 11
202.82403071
 21
83.576280861
 31
0.0
  0
LINE
  5
16D
330
1F
100
AcDbEntity
  8
0
  6
Continuous
 62
     1
100
AcDbLine
 10
202.82403071
 20
77.576280861
 30
0.0
 11
201.82403071
 21
77.576280861
 31
0.0
  0
LINE
  5
16E
330
1F
100
AcDbEntity
  8
0
  6
Continuous
 62
     1
100
AcDbLine
 10
202.82403071
 20
77.576280861
 30
0.0
 11
202.82403071
 21
83.576280861
 31
0.0
  0
LINE
  5
16F
330
1F
100
AcDbEntity
  8
0
  6
Continuous
 62
     1
100
AcDbLine
 10
202.82403071
 20
80.576280861
 30
0.0
 11
201.82403071
 21
81.576280861
 31
0.0
  0
LINE
  5
170
330
1F
100
AcDbEntity
  8
0
  6
Continuous
 62
     1
100
AcDbLine
 10
202.82403071
 20
79.576280861
 30
0.0
 11
201.82403071
 21
80.576280861
 31
0.0
  0
ARC
  5
171
330
1F
100
AcDbEntity
  8
0
  6
Continuous
 62
     1
100
AcDbCircle
 10
202.82403071
 20
82.076280861
 30
0.0
 40
1.5
100
AcDbArc
 50
0.0
 51
90.0
  0
ARC
  5
172
330
1F
100
AcDbEntity
  8
0
  6
Continuous
 62
     1
100
AcDbCircle
 10
202.82403071
 20
79.076280861
 30
0.0
 40
1.5
100
AcDbArc
 50
270.0
 51
0.0
  0
LINE
  5
173
330
1F
100
AcDbEntity
  8
0
  6
Continuous
 62
     1
100
AcDbLine
 10
204.32403071
 20
79.076280861
 30
0.0
 11
204.32403071
 21
82.076280861
 31
0.0
  0
LINE
  5
174
330
1F
100
AcDbEntity
  8
0
  6
Continuous
 62
     1
100
AcDbLine
 10
200.82403071
 20
83.676280861
 30
0.0
 11
198.82403071
 21
83.676280861
 31
0.0
  0
LINE
  5
175
330
1F
100
AcDbEntity
  8
0
  6
Continuous
 62
     1
100
AcDbLine
 10
198.82403071
 20
83.676280861
 30
0.0
 11
198.82403071
 21
77.476280861
 31
0.0
  0
LINE
  5
176
330
1F
100
AcDbEntity
  8
0
  6
Continuous
 62
     1
100
AcDbLine
 10
198.82403071
 20
77.476280861
 30
0.0
 11
200.82403071
 21
77.476280861
 31
0.0
  0
LINE
  5
177
330
1F
100
AcDbEntity
  8
0
  6
Continuous
 62
     1
100
AcDbLine
 10
205.82403071
 20
76.096280861
 30
0.0
 11
205.82403071
 21
77.476280861
 31
0.0
  0
LINE
  5
178
330
1F
100
AcDbEntity
  8
0
  6
Continuous
 62
     1
100
AcDbLine
 10
205.82403071
 20
77.476280861
 30
0.0
 11
205.82403071
 21
76.046280861
 31
0.0
  0
LINE
  5
179
330
1F
100
AcDbEntity
  8
0
  6
Continuous
 62
     1
100
AcDbLine
 10
205.82403071
 20
76.046280861
 30
0.0
 11
200.82403071
 21
76.046280861
 31
0.0
  0
LINE
  5
17A
330
1F
100
AcDbEntity
  8
0
  6
Continuous
 62
     1
100
AcDbLine
 10
200.82403071
 20
76.046280861
 30
0.0
 11
200.82403071
 21
69.846280861
 31
0.0
  0
LINE
  5
17B
330
1F
100
AcDbEntity
  8
0
  6
Continuous
 62
     1
100
AcDbLine
 10
200.82403071
 20
69.846280861
 30
0.0
 11
205.82403071
 21
69.846280861
 31
0.0
  0
LINE
  5
17C
330
1F
100
AcDbEntity
  8
0
  6
Continuous
 62
     1
100
AcDbLine
 10
201.82403071
 20
76.046280861
 30
0.0
 11
201.82403071
 21
69.846280861
 31
0.0
  0
LINE
  5
17D
330
1F
100
AcDbEntity
  8
0
  6
Continuous
 62
     1
100
AcDbLine
 10
201.82403071
 20
75.946280861
 30
0.0
 11
202.82403071
 21
75.946280861
 31
0.0
  0
LINE
  5
17E
330
1F
100
AcDbEntity
  8
0
  6
Continuous
 62
     1
100
AcDbLine
 10
202.82403071
 20
69.946280861
 30
0.0
 11
201.82403071
 21
69.946280861
 31
0.0
  0
LINE
  5
17F
330
1F
100
AcDbEntity
  8
0
  6
Continuous
 62
     1
100
AcDbLine
 10
202.82403071
 20
69.946280861
 30
0.0
 11
202.82403071
 21
75.946280861
 31
0.0
  0
LINE
  5
180
330
1F
100
AcDbEntity
  8
0
  6
Continuous
 62
     1
100
AcDbLine
 10
202.82403071
 20
72.946280861
 30
0.0
 11
201.82403071
 21
73.946280861
 31
0.0
  0
LINE
  5
181
330
1F
100
AcDbEntity
  8
0
  6
Continuous
 62
     1
100
AcDbLine
 10
202.82403071
 20
71.946280861
 30
0.0
 11
201.82403071
 21
72.946280861
 31
0.0
  0
ARC
  5
182
330
1F
100
AcDbEntity
  8
0
  6
Continuous
 62
     1
100
AcDbCircle
 10
202.82403071
 20
74.446280861
 30
0.0
 40
1.5
100
AcDbArc
 50
0.0
 51
90.0
  0
ARC
  5
183
330
1F
100
AcDbEntity
  8
0
  6
Continuous
 62
     1
100
AcDbCircle
 10
202.82403071
 20
71.446280861
 30
0.0
 40
1.5
100
AcDbArc
 50
270.0
 51
0.0
  0
LINE
  5
184
330
1F
100
AcDbEntity
  8
0
  6
Continuous
 62
     1
100
AcDbLine
 10
204.32403071
 20
71.446280861
 30
0.0
 11
204.32403071
 21
74.446280861
 31
0.0
  0
LINE
  5
185
330
1F
100
AcDbEntity
  8
0
  6
Continuous
 62
     1
100
AcDbLine
 10
200.82403071
 20
76.046280861
 30
0.0
 11
198.82403071
 21
76.046280861
 31
0.0
  0
LINE
  5
186
330
1F
100
AcDbEntity
  8
0
  6
Continuous
 62
     1
100
AcDbLine
 10
198.82403071
 20
76.046280861
 30
0.0
 11
198.82403071
 21
69.846280861
 31
0.0
  0
LINE
  5
187
330
1F
100
AcDbEntity
  8
0
  6
Continuous
 62
     1
100
AcDbLine
 10
198.82403071
 20
69.846280861
 30
0.0
 11
200.82403071
 21
69.846280861
 31
0.0
  0
LINE
  5
188
330
1F
100
AcDbEntity
  8
0
  6
Continuous
 62
     1
100
AcDbLine
 10
205.82403071
 20
68.466280861
 30
0.0
 11
205.82403071
 21
69.846280861
 31
0.0
  0
LINE
  5
189
330
1F
100
AcDbEntity
  8
0
  6
Continuous
 62
     1
100
AcDbLine
 10
205.82403071
 20
69.846280861
 30
0.0
 11
205.82403071
 21
68.416280861
 31
0.0
  0
LINE
  5
18A
330
1F
100
AcDbEntity
  8
0
  6
Continuous
 62
     1
100
AcDbLine
 10
205.82403071
 20
68.416280861
 30
0.0
 11
200.82403071
 21
68.416280861
 31
0.0
  0
LINE
  5
18B
330
1F
100
AcDbEntity
  8
0
  6
Continuous
 62
     1
100
AcDbLine
 10
200.82403071
 20
68.416280861
 30
0.0
 11
200.82403071
 21
62.216280861
 31
0.0
  0
LINE
  5
18C
330
1F
100
AcDbEntity
  8
0
  6
Continuous
 62
     1
100
AcDbLine
 10
200.82403071
 20
62.216280861
 30
0.0
 11
205.82403071
 21
62.216280861
 31
0.0
  0
LINE
  5
18D
330
1F
100
AcDbEntity
  8
0
  6
Continuous
 62
     1
100
AcDbLine
 10
201.82403071
 20
68.416280861
 30
0.0
 11
201.82403071
 21
62.216280861
 31
0.0
  0
LINE
  5
18E
330
1F
100
AcDbEntity
  8
0
  6
Continuous
 62
     1
100
AcDbLine
 10
201.82403071
 20
68.316280861
 30
0.0
 11
202.82403071
 21
68.316280861
 31
0.0
  0
LINE
  5
18F
330
1F
100
AcDbEntity
  8
0
  6
Continuous
 62
     1
100
AcDbLine
 10
202.82403071
 20
62.316280861
 30
0.0
 11
201.82403071
 21
62.316280861
 31
0.0
  0
LINE
  5
190
330
1F
100
AcDbEntity
  8
0
  6
Continuous
 62
     1
100
AcDbLine
 10
202.82403071
 20
62.316280861
 30
0.0
 11
202.82403071
 21
68.316280861
 31
0.0
  0
LINE
  5
191
330
1F
100
AcDbEntity
  8
0
  6
Continuous
 62
     1
100
AcDbLine
 10
202.82403071
 20
65.316280861
 30
0.0
 11
201.82403071
 21
66.316280861
 31
0.0
  0
LINE
  5
192
330
1F
100
AcDbEntity
  8
0
  6
Continuous
 62
     1
100
AcDbLine
 10
202.82403071
 20
64.316280861
 30
0.0
 11
201.82403071
 21
65.316280861
 31
0.0
  0
ARC
  5
193
330
1F
100
AcDbEntity
  8
0
  6
Continuous
 62
     1
100
AcDbCircle
 10
202.82403071
 20
66.816280861
 30
0.0
 40
1.5
100
AcDbArc
 50
0.0
 51
90.0
  0
ARC
  5
194
330
1F
100
AcDbEntity
  8
0
  6
Continuous
 62
     1
100
AcDbCircle
 10
202.82403071
 20
63.816280861
 30
0.0
 40
1.5
100
AcDbArc
 50
270.0
 51
0.0
  0
LINE
  5
195
330
1F
100
AcDbEntity
  8
0
  6
Continuous
 62
     1
100
AcDbLine
 10
204.32403071
 20
63.816280861
 30
0.0
 11
204.32403071
 21
66.816280861
 31
0.0
  0
LINE
  5
196
330
1F
100
AcDbEntity
  8
0
  6
Continuous
 62
     1
100
AcDbLine
 10
200.82403071
 20
68.416280861
 30
0.0
 11
198.82403071
 21
68.416280861
 31
0.0
  0
LINE
  5
197
330
1F
100
AcDbEntity
  8
0
  6
Continuous
 62
     1
100
AcDbLine
 10
198.82403071
 20
68.416280861
 30
0.0
 11
198.82403071
 21
62.216280861
 31
0.0
  0
LINE
  5
198
330
1F
100
AcDbEntity
  8
0
  6
Continuous
 62
     1
100
AcDbLine
 10
198.82403071
 20
62.216280861
 30
0.0
 11
200.82403071
 21
62.216280861
 31
0.0
  0
LINE
  5
199
330
1F
100
AcDbEntity
  8
0
  6
Continuous
 62
     1
100
AcDbLine
 10
205.82403071
 20
60.836280861
 30
0.0
 11
205.82403071
 21
62.216280861
 31
0.0
  0
LINE
  5
19A
330
1F
100
AcDbEntity
  8
0
  6
Continuous
 62
     1
100
AcDbLine
 10
205.82403071
 20
62.216280861
 30
0.0
 11
205.82403071
 21
60.786280861
 31
0.0
  0
LINE
  5
19B
330
1F
100
AcDbEntity
  8
0
  6
Continuous
 62
     1
100
AcDbLine
 10
205.82403071
 20
60.786280861
 30
0.0
 11
200.82403071
 21
60.786280861
 31
0.0
  0
LINE
  5
19C
330
1F
100
AcDbEntity
  8
0
  6
Continuous
 62
     1
100
AcDbLine
 10
200.82403071
 20
60.786280861
 30
0.0
 11
200.82403071
 21
54.586280861
 31
0.0
  0
LINE
  5
19D
330
1F
100
AcDbEntity
  8
0
  6
Continuous
 62
     1
100
AcDbLine
 10
200.82403071
 20
54.586280861
 30
0.0
 11
205.82403071
 21
54.586280861
 31
0.0
  0
LINE
  5
19E
330
1F
100
AcDbEntity
  8
0
  6
Continuous
 62
     1
100
AcDbLine
 10
201.82403071
 20
60.786280861
 30
0.0
 11
201.82403071
 21
54.586280861
 31
0.0
  0
LINE
  5
19F
330
1F
100
AcDbEntity
  8
0
  6
Continuous
 62
     1
100
AcDbLine
 10
201.82403071
 20
60.686280861
 30
0.0
 11
202.82403071
 21
60.686280861
 31
0.0
  0
LINE
  5
1A0
330
1F
100
AcDbEntity
  8
0
  6
Continuous
 62
     1
100
AcDbLine
 10
202.82403071
 20
54.686280861
 30
0.0
 11
201.82403071
 21
54.686280861
 31
0.0
  0
LINE
  5
1A1
330
1F
100
AcDbEntity
  8
0
  6
Continuous
 62
     1
100
AcDbLine
 10
202.82403071
 20
54.686280861
 30
0.0
 11
202.82403071
 21
60.686280861
 31
0.0
  0
LINE
  5
1A2
330
1F
100
AcDbEntity
  8
0
  6
Continuous
 62
     1
100
AcDbLine
 10
202.82403071
 20
57.686280861
 30
0.0
 11
201.82403071
 21
58.686280861
 31
0.0
  0
LINE
  5
1A3
330
1F
100
AcDbEntity
  8
0
  6
Continuous
 62
     1
100
AcDbLine
 10
202.82403071
 20
56.686280861
 30
0.0
 11
201.82403071
 21
57.686280861
 31
0.0
  0
ARC
  5
1A4
330
1F
100
AcDbEntity
  8
0
  6
Continuous
 62
     1
100
AcDbCircle
 10
202.82403071
 20
59.186280861
 30
0.0
 40
1.5
100
AcDbArc
 50
0.0
 51
90.0
  0
ARC
  5
1A5
330
1F
100
AcDbEntity
  8
0
  6
Continuous
 62
     1
100
AcDbCircle
 10
202.82403071
 20
56.186280861
 30
0.0
 40
1.5
100
AcDbArc
 50
270.0
 51
0.0
  0
LINE
  5
1A6
330
1F
100
AcDbEntity
  8
0
  6
Continuous
 62
     1
100
AcDbLine
 10
204.32403071
 20
56.186280861
 30
0.0
 11
204.32403071
 21
59.186280861
 31
0.0
  0
LINE
  5
1A7
330
1F
100
AcDbEntity
  8
0
  6
Continuous
 62
     1
100
AcDbLine
 10
200.82403071
 20
60.786280861
 30
0.0
 11
198.82403071
 21
60.786280861
 31
0.0
  0
LINE
  5
1A8
330
1F
100
AcDbEntity
  8
0
  6
Continuous
 62
     1
100
AcDbLine
 10
198.82403071
 20
60.786280861
 30
0.0
 11
198.82403071
 21
54.586280861
 31
0.0
  0
LINE
  5
1A9
330
1F
100
AcDbEntity
  8
0
  6
Continuous
 62
     1
100
AcDbLine
 10
198.82403071
 20
54.586280861
 30
0.0
 11
200.82403071
 21
54.586280861
 31
0.0
  0
LINE
  5
1AA
330
1F
100
AcDbEntity
  8
0
  6
Continuous
 62
     1
100
AcDbLine
 10
205.82403071
 20
53.206280861
 30
0.0
 11
205.82403071
 21
54.586280861
 31
0.0
  0
LINE
  5
1AB
330
1F
100
AcDbEntity
  8
0
  6
Continuous
 62
     1
100
AcDbLine
 10
205.82403071
 20
54.586280861
 30
0.0
 11
205.82403071
 21
53.156280861
 31
0.0
  0
LINE
  5
1AC
330
1F
100
AcDbEntity
  8
0
  6
Continuous
 62
     1
100
AcDbLine
 10
200.82403071
 20
53.226280861
 30
0.0
 11
200.82403071
 21
52.616280861
 31
0.0
  0
LINE
  5
1AD
330
1F
100
AcDbEntity
  8
0
  6
Continuous
 62
     1
100
AcDbLine
 10
200.82403071
 20
52.616280861
 30
0.0
 11
198.82403071
 21
52.616280861
 31
0.0
  0
LINE
  5
1AE
330
1F
100
AcDbEntity
  8
0
  6
Continuous
 62
     1
100
AcDbLine
 10
198.82403071
 20
52.616280861
 30
0.0
 11
198.82403071
 21
53.226280861
 31
0.0
  0
LINE
  5
1AF
330
1F
100
AcDbEntity
  8
0
  6
Continuous
 62
     1
100
AcDbLine
 10
205.82403071
 20
53.206280861
 30
0.0
 11
198.82403071
 21
53.226280861
 31
0.0
  0
LINE
  5
1B0
330
1F
100
AcDbEntity
  8
0
  6
Continuous
 62
     1
100
AcDbLine
 10
198.82403071
 20
52.616280861
 30
0.0
 11
195.52403071
 21
52.616280861
 31
0.0
  0
LINE
  5
1B1
330
1F
100
AcDbEntity
  8
0
  6
Continuous
 62
     1
100
AcDbLine
 10
195.52403071
 20
52.616280861
 30
0.0
 11
195.52403071
 21
101.086280861
 31
0.0
  0
LINE
  5
1B2
330
1F
100
AcDbEntity
  8
0
  6
Continuous
 62
     1
100
AcDbLine
 10
125.52403071
 20
50.616280861
 30
0.0
 11
125.52403071
 21
36.216280861
 31
0.0
  0
LINE
  5
1B3
330
1F
100
AcDbEntity
  8
0
  6
Continuous
 62
     1
100
AcDbLine
 10
125.52403071
 20
38.216280861
 30
0.0
 11
127.938845276
 21
37.569233248
 31
0.0
  0
LINE
  5
1B4
330
1F
100
AcDbEntity
  8
0
  6
Continuous
 62
     1
100
AcDbLine
 10
125.52403071
 20
38.216280861
 30
0.0
 11
127.938845276
 21
38.863328473
 31
0.0
  0
LWPOLYLINE
  5
1B6
330
1F
100
AcDbEntity
  8
0
  6
Continuous
 62
     1
100
AcDbPolyline
 90
     3
 70
   128
 43
0.0
 10
125.52403071
 20
38.216280861
 10
195.52403071
 20
38.216280861
 10
193.109216145
 20
38.863328473
  0
LINE
  5
1B7
330
1F
100
AcDbEntity
  8
0
  6
Continuous
 62
     1
100
AcDbLine
 10
195.52403071
 20
38.216280861
 30
0.0
 11
193.109216145
 21
37.569233248
 31
0.0
  0
LINE
  5
1B8
330
1F
100
AcDbEntity
  8
0
  6
Continuous
 62
     1
100
AcDbLine
 10
195.52403071
 20
50.616280861
 30
0.0
 11
195.52403071
 21
36.216280861
 31
0.0
  0
TEXT
  5
1B9
330
1F
100
AcDbEntity
  8
0
  6
Continuous
 62
     1
100
AcDbText
 10
157.62403071
 20
39.216280861
 30
0.0
 40
3.0
  1
７０
 41
0.933333333
 51
15.0
  7
KANJI1
100
AcDbText
  0
LINE
  5
1BA
330
1F
100
AcDbEntity
  8
0
  6
Continuous
 62
     1
100
AcDbLine
 10
169.52403071
 20
190.676280861
 30
0.0
 11
129.52403071
 21
190.676280861
 31
0.0
  0
LINE
  5
1BB
330
1F
100
AcDbEntity
  8
0
  6
Continuous
 62
     1
100
AcDbLine
 10
129.52403071
 20
215.676280861
 30
0.0
 11
169.52403071
 21
215.676280861
 31
0.0
  0
LINE
  5
1BC
330
1F
100
AcDbEntity
  8
0
  6
Continuous
 62
     1
100
AcDbLine
 10
169.52403071
 20
215.676280861
 30
0.0
 11
169.52403071
 21
190.676280861
 31
0.0
  0
LINE
  5
1BD
330
1F
100
AcDbEntity
  8
0
  6
Continuous
 62
     1
100
AcDbLine
 10
129.52403071
 20
190.676280861
 30
0.0
 11
129.52403071
 21
215.676280861
 31
0.0
  0
LINE
  5
1BE
330
1F
100
AcDbEntity
  8
0
  6
Continuous
 62
     1
100
AcDbLine
 10
195.52403071
 20
226.976280861
 30
0.0
 11
198.82403071
 21
226.976280861
 31
0.0
  0
LINE
  5
1BF
330
1F
100
AcDbEntity
  8
0
  6
Continuous
 62
     1
100
AcDbLine
 10
198.82403071
 20
226.256280861
 30
0.0
 11
198.82403071
 21
226.976280861
 31
0.0
  0
LINE
  5
1C0
330
1F
100
AcDbEntity
  8
0
  6
Continuous
 62
     1
100
AcDbLine
 10
205.82403071
 20
224.876280861
 30
0.0
 11
205.82403071
 21
226.256280861
 31
0.0
  0
LINE
  5
1C1
330
1F
100
AcDbEntity
  8
0
  6
Continuous
 62
     1
100
AcDbLine
 10
205.82403071
 20
226.256280861
 30
0.0
 11
200.82403071
 21
226.256280861
 31
0.0
  0
LINE
  5
1C2
330
1F
100
AcDbEntity
  8
0
  6
Continuous
 62
     1
100
AcDbLine
 10
198.82403071
 20
226.256280861
 30
0.0
 11
200.82403071
 21
226.256280861
 31
0.0
  0
LINE
  5
1C3
330
1F
100
AcDbEntity
  8
0
  6
Continuous
 62
     1
100
AcDbLine
 10
198.82403071
 20
226.976280861
 30
0.0
 11
200.82403071
 21
226.976280861
 31
0.0
  0
LINE
  5
1C4
330
1F
100
AcDbEntity
  8
0
  6
Continuous
 62
     1
100
AcDbLine
 10
200.82403071
 20
226.976280861
 30
0.0
 11
200.82403071
 21
226.256280861
 31
0.0
  0
LINE
  5
1C5
330
1F
100
AcDbEntity
  8
0
  6
Continuous
 62
     1
100
AcDbLine
 10
205.82403071
 20
226.256280861
 30
0.0
 11
205.82403071
 21
224.826280861
 31
0.0
  0
LINE
  5
1C6
330
1F
100
AcDbEntity
  8
0
  6
Continuous
 62
     1
100
AcDbLine
 10
205.82403071
 20
224.826280861
 30
0.0
 11
200.82403071
 21
224.826280861
 31
0.0
  0
LINE
  5
1C7
330
1F
100
AcDbEntity
  8
0
  6
Continuous
 62
     1
100
AcDbLine
 10
200.82403071
 20
224.826280861
 30
0.0
 11
200.82403071
 21
218.626280861
 31
0.0
  0
LINE
  5
1C8
330
1F
100
AcDbEntity
  8
0
  6
Continuous
 62
     1
100
AcDbLine
 10
200.82403071
 20
218.626280861
 30
0.0
 11
205.82403071
 21
218.626280861
 31
0.0
  0
LINE
  5
1C9
330
1F
100
AcDbEntity
  8
0
  6
Continuous
 62
     1
100
AcDbLine
 10
201.82403071
 20
224.826280861
 30
0.0
 11
201.82403071
 21
218.626280861
 31
0.0
  0
LINE
  5
1CA
330
1F
100
AcDbEntity
  8
0
  6
Continuous
 62
     1
100
AcDbLine
 10
201.82403071
 20
224.726280861
 30
0.0
 11
202.82403071
 21
224.726280861
 31
0.0
  0
LINE
  5
1CB
330
1F
100
AcDbEntity
  8
0
  6
Continuous
 62
     1
100
AcDbLine
 10
202.82403071
 20
218.726280861
 30
0.0
 11
201.82403071
 21
218.726280861
 31
0.0
  0
LINE
  5
1CC
330
1F
100
AcDbEntity
  8
0
  6
Continuous
 62
     1
100
AcDbLine
 10
202.82403071
 20
218.726280861
 30
0.0
 11
202.82403071
 21
224.726280861
 31
0.0
  0
LINE
  5
1CD
330
1F
100
AcDbEntity
  8
0
  6
Continuous
 62
     1
100
AcDbLine
 10
202.82403071
 20
221.726280861
 30
0.0
 11
201.82403071
 21
222.726280861
 31
0.0
  0
LINE
  5
1CE
330
1F
100
AcDbEntity
  8
0
  6
Continuous
 62
     1
100
AcDbLine
 10
202.82403071
 20
220.726280861
 30
0.0
 11
201.82403071
 21
221.726280861
 31
0.0
  0
ARC
  5
1CF
330
1F
100
AcDbEntity
  8
0
  6
Continuous
 62
     1
100
AcDbCircle
 10
202.82403071
 20
223.226280861
 30
0.0
 40
1.5
100
AcDbArc
 50
0.0
 51
90.0
  0
ARC
  5
1D0
330
1F
100
AcDbEntity
  8
0
  6
Continuous
 62
     1
100
AcDbCircle
 10
202.82403071
 20
220.226280861
 30
0.0
 40
1.5
100
AcDbArc
 50
270.0
 51
0.0
  0
LINE
  5
1D1
330
1F
100
AcDbEntity
  8
0
  6
Continuous
 62
     1
100
AcDbLine
 10
204.32403071
 20
220.226280861
 30
0.0
 11
204.32403071
 21
223.226280861
 31
0.0
  0
LINE
  5
1D2
330
1F
100
AcDbEntity
  8
0
  6
Continuous
 62
     1
100
AcDbLine
 10
200.82403071
 20
224.826280861
 30
0.0
 11
198.82403071
 21
224.826280861
 31
0.0
  0
LINE
  5
1D3
330
1F
100
AcDbEntity
  8
0
  6
Continuous
 62
     1
100
AcDbLine
 10
198.82403071
 20
224.826280861
 30
0.0
 11
198.82403071
 21
218.626280861
 31
0.0
  0
LINE
  5
1D4
330
1F
100
AcDbEntity
  8
0
  6
Continuous
 62
     1
100
AcDbLine
 10
198.82403071
 20
218.626280861
 30
0.0
 11
200.82403071
 21
218.626280861
 31
0.0
  0
LINE
  5
1D5
330
1F
100
AcDbEntity
  8
0
  6
Continuous
 62
     1
100
AcDbLine
 10
205.82403071
 20
217.246280861
 30
0.0
 11
205.82403071
 21
218.626280861
 31
0.0
  0
LINE
  5
1D6
330
1F
100
AcDbEntity
  8
0
  6
Continuous
 62
     1
100
AcDbLine
 10
205.82403071
 20
218.626280861
 30
0.0
 11
205.82403071
 21
217.196280861
 31
0.0
  0
LINE
  5
1D7
330
1F
100
AcDbEntity
  8
0
  6
Continuous
 62
     1
100
AcDbLine
 10
205.82403071
 20
217.196280861
 30
0.0
 11
200.82403071
 21
217.196280861
 31
0.0
  0
LINE
  5
1D8
330
1F
100
AcDbEntity
  8
0
  6
Continuous
 62
     1
100
AcDbLine
 10
200.82403071
 20
217.196280861
 30
0.0
 11
200.82403071
 21
210.996280861
 31
0.0
  0
LINE
  5
1D9
330
1F
100
AcDbEntity
  8
0
  6
Continuous
 62
     1
100
AcDbLine
 10
200.82403071
 20
210.996280861
 30
0.0
 11
205.82403071
 21
210.996280861
 31
0.0
  0
LINE
  5
1DA
330
1F
100
AcDbEntity
  8
0
  6
Continuous
 62
     1
100
AcDbLine
 10
201.82403071
 20
217.196280861
 30
0.0
 11
201.82403071
 21
210.996280861
 31
0.0
  0
LINE
  5
1DB
330
1F
100
AcDbEntity
  8
0
  6
Continuous
 62
     1
100
AcDbLine
 10
201.82403071
 20
217.096280861
 30
0.0
 11
202.82403071
 21
217.096280861
 31
0.0
  0
LINE
  5
1DC
330
1F
100
AcDbEntity
  8
0
  6
Continuous
 62
     1
100
AcDbLine
 10
202.82403071
 20
211.096280861
 30
0.0
 11
201.82403071
 21
211.096280861
 31
0.0
  0
LINE
  5
1DD
330
1F
100
AcDbEntity
  8
0
  6
Continuous
 62
     1
100
AcDbLine
 10
202.82403071
 20
211.096280861
 30
0.0
 11
202.82403071
 21
217.096280861
 31
0.0
  0
LINE
  5
1DE
330
1F
100
AcDbEntity
  8
0
  6
Continuous
 62
     1
100
AcDbLine
 10
202.82403071
 20
214.096280861
 30
0.0
 11
201.82403071
 21
215.096280861
 31
0.0
  0
LINE
  5
1DF
330
1F
100
AcDbEntity
  8
0
  6
Continuous
 62
     1
100
AcDbLine
 10
202.82403071
 20
213.096280861
 30
0.0
 11
201.82403071
 21
214.096280861
 31
0.0
  0
ARC
  5
1E0
330
1F
100
AcDbEntity
  8
0
  6
Continuous
 62
     1
100
AcDbCircle
 10
202.82403071
 20
215.596280861
 30
0.0
 40
1.5
100
AcDbArc
 50
0.0
 51
90.0
  0
ARC
  5
1E1
330
1F
100
AcDbEntity
  8
0
  6
Continuous
 62
     1
100
AcDbCircle
 10
202.82403071
 20
212.596280861
 30
0.0
 40
1.5
100
AcDbArc
 50
270.0
 51
0.0
  0
LINE
  5
1E2
330
1F
100
AcDbEntity
  8
0
  6
Continuous
 62
     1
100
AcDbLine
 10
204.32403071
 20
212.596280861
 30
0.0
 11
204.32403071
 21
215.596280861
 31
0.0
  0
LINE
  5
1E3
330
1F
100
AcDbEntity
  8
0
  6
Continuous
 62
     1
100
AcDbLine
 10
200.82403071
 20
217.196280861
 30
0.0
 11
198.82403071
 21
217.196280861
 31
0.0
  0
LINE
  5
1E4
330
1F
100
AcDbEntity
  8
0
  6
Continuous
 62
     1
100
AcDbLine
 10
198.82403071
 20
217.196280861
 30
0.0
 11
198.82403071
 21
210.996280861
 31
0.0
  0
LINE
  5
1E5
330
1F
100
AcDbEntity
  8
0
  6
Continuous
 62
     1
100
AcDbLine
 10
198.82403071
 20
210.996280861
 30
0.0
 11
200.82403071
 21
210.996280861
 31
0.0
  0
LINE
  5
1E6
330
1F
100
AcDbEntity
  8
0
  6
Continuous
 62
     1
100
AcDbLine
 10
205.82403071
 20
209.616280861
 30
0.0
 11
205.82403071
 21
210.996280861
 31
0.0
  0
LINE
  5
1E7
330
1F
100
AcDbEntity
  8
0
  6
Continuous
 62
     1
100
AcDbLine
 10
205.82403071
 20
210.996280861
 30
0.0
 11
205.82403071
 21
209.566280861
 31
0.0
  0
LINE
  5
1E8
330
1F
100
AcDbEntity
  8
0
  6
Continuous
 62
     1
100
AcDbLine
 10
205.82403071
 20
209.566280861
 30
0.0
 11
200.82403071
 21
209.566280861
 31
0.0
  0
LINE
  5
1E9
330
1F
100
AcDbEntity
  8
0
  6
Continuous
 62
     1
100
AcDbLine
 10
200.82403071
 20
209.566280861
 30
0.0
 11
200.82403071
 21
203.366280861
 31
0.0
  0
LINE
  5
1EA
330
1F
100
AcDbEntity
  8
0
  6
Continuous
 62
     1
100
AcDbLine
 10
200.82403071
 20
203.366280861
 30
0.0
 11
205.82403071
 21
203.366280861
 31
0.0
  0
LINE
  5
1EB
330
1F
100
AcDbEntity
  8
0
  6
Continuous
 62
     1
100
AcDbLine
 10
201.82403071
 20
209.566280861
 30
0.0
 11
201.82403071
 21
203.366280861
 31
0.0
  0
LINE
  5
1EC
330
1F
100
AcDbEntity
  8
0
  6
Continuous
 62
     1
100
AcDbLine
 10
201.82403071
 20
209.466280861
 30
0.0
 11
202.82403071
 21
209.466280861
 31
0.0
  0
LINE
  5
1ED
330
1F
100
AcDbEntity
  8
0
  6
Continuous
 62
     1
100
AcDbLine
 10
202.82403071
 20
203.466280861
 30
0.0
 11
201.82403071
 21
203.466280861
 31
0.0
  0
LINE
  5
1EE
330
1F
100
AcDbEntity
  8
0
  6
Continuous
 62
     1
100
AcDbLine
 10
202.82403071
 20
203.466280861
 30
0.0
 11
202.82403071
 21
209.466280861
 31
0.0
  0
LINE
  5
1EF
330
1F
100
AcDbEntity
  8
0
  6
Continuous
 62
     1
100
AcDbLine
 10
202.82403071
 20
206.466280861
 30
0.0
 11
201.82403071
 21
207.466280861
 31
0.0
  0
LINE
  5
1F0
330
1F
100
AcDbEntity
  8
0
  6
Continuous
 62
     1
100
AcDbLine
 10
202.82403071
 20
205.466280861
 30
0.0
 11
201.82403071
 21
206.466280861
 31
0.0
  0
ARC
  5
1F1
330
1F
100
AcDbEntity
  8
0
  6
Continuous
 62
     1
100
AcDbCircle
 10
202.82403071
 20
207.966280861
 30
0.0
 40
1.5
100
AcDbArc
 50
0.0
 51
90.0
  0
ARC
  5
1F2
330
1F
100
AcDbEntity
  8
0
  6
Continuous
 62
     1
100
AcDbCircle
 10
202.82403071
 20
204.966280861
 30
0.0
 40
1.5
100
AcDbArc
 50
270.0
 51
0.0
  0
LINE
  5
1F3
330
1F
100
AcDbEntity
  8
0
  6
Continuous
 62
     1
100
AcDbLine
 10
204.32403071
 20
204.966280861
 30
0.0
 11
204.32403071
 21
207.966280861
 31
0.0
  0
LINE
  5
1F4
330
1F
100
AcDbEntity
  8
0
  6
Continuous
 62
     1
100
AcDbLine
 10
200.82403071
 20
209.566280861
 30
0.0
 11
198.82403071
 21
209.566280861
 31
0.0
  0
LINE
  5
1F5
330
1F
100
AcDbEntity
  8
0
  6
Continuous
 62
     1
100
AcDbLine
 10
198.82403071
 20
209.566280861
 30
0.0
 11
198.82403071
 21
203.366280861
 31
0.0
  0
LINE
  5
1F6
330
1F
100
AcDbEntity
  8
0
  6
Continuous
 62
     1
100
AcDbLine
 10
198.82403071
 20
203.366280861
 30
0.0
 11
200.82403071
 21
203.366280861
 31
0.0
  0
LINE
  5
1F7
330
1F
100
AcDbEntity
  8
0
  6
Continuous
 62
     1
100
AcDbLine
 10
205.82403071
 20
201.986280861
 30
0.0
 11
205.82403071
 21
203.366280861
 31
0.0
  0
LINE
  5
1F8
330
1F
100
AcDbEntity
  8
0
  6
Continuous
 62
     1
100
AcDbLine
 10
205.82403071
 20
203.366280861
 30
0.0
 11
205.82403071
 21
201.936280861
 31
0.0
  0
LINE
  5
1F9
330
1F
100
AcDbEntity
  8
0
  6
Continuous
 62
     1
100
AcDbLine
 10
205.82403071
 20
201.936280861
 30
0.0
 11
200.82403071
 21
201.936280861
 31
0.0
  0
LINE
  5
1FA
330
1F
100
AcDbEntity
  8
0
  6
Continuous
 62
     1
100
AcDbLine
 10
200.82403071
 20
201.936280861
 30
0.0
 11
200.82403071
 21
195.736280861
 31
0.0
  0
LINE
  5
1FB
330
1F
100
AcDbEntity
  8
0
  6
Continuous
 62
     1
100
AcDbLine
 10
200.82403071
 20
195.736280861
 30
0.0
 11
205.82403071
 21
195.736280861
 31
0.0
  0
LINE
  5
1FC
330
1F
100
AcDbEntity
  8
0
  6
Continuous
 62
     1
100
AcDbLine
 10
201.82403071
 20
201.936280861
 30
0.0
 11
201.82403071
 21
195.736280861
 31
0.0
  0
LINE
  5
1FD
330
1F
100
AcDbEntity
  8
0
  6
Continuous
 62
     1
100
AcDbLine
 10
201.82403071
 20
201.836280861
 30
0.0
 11
202.82403071
 21
201.836280861
 31
0.0
  0
LINE
  5
1FE
330
1F
100
AcDbEntity
  8
0
  6
Continuous
 62
     1
100
AcDbLine
 10
202.82403071
 20
195.836280861
 30
0.0
 11
201.82403071
 21
195.836280861
 31
0.0
  0
LINE
  5
1FF
330
1F
100
AcDbEntity
  8
0
  6
Continuous
 62
     1
100
AcDbLine
 10
202.82403071
 20
195.836280861
 30
0.0
 11
202.82403071
 21
201.836280861
 31
0.0
  0
LINE
  5
200
330
1F
100
AcDbEntity
  8
0
  6
Continuous
 62
     1
100
AcDbLine
 10
202.82403071
 20
198.836280861
 30
0.0
 11
201.82403071
 21
199.836280861
 31
0.0
  0
LINE
  5
201
330
1F
100
AcDbEntity
  8
0
  6
Continuous
 62
     1
100
AcDbLine
 10
202.82403071
 20
197.836280861
 30
0.0
 11
201.82403071
 21
198.836280861
 31
0.0
  0
ARC
  5
202
330
1F
100
AcDbEntity
  8
0
  6
Continuous
 62
     1
100
AcDbCircle
 10
202.82403071
 20
200.336280861
 30
0.0
 40
1.5
100
AcDbArc
 50
0.0
 51
90.0
  0
ARC
  5
203
330
1F
100
AcDbEntity
  8
0
  6
Continuous
 62
     1
100
AcDbCircle
 10
202.82403071
 20
197.336280861
 30
0.0
 40
1.5
100
AcDbArc
 50
270.0
 51
0.0
  0
LINE
  5
204
330
1F
100
AcDbEntity
  8
0
  6
Continuous
 62
     1
100
AcDbLine
 10
204.32403071
 20
197.336280861
 30
0.0
 11
204.32403071
 21
200.336280861
 31
0.0
  0
LINE
  5
205
330
1F
100
AcDbEntity
  8
0
  6
Continuous
 62
     1
100
AcDbLine
 10
200.82403071
 20
201.936280861
 30
0.0
 11
198.82403071
 21
201.936280861
 31
0.0
  0
LINE
  5
206
330
1F
100
AcDbEntity
  8
0
  6
Continuous
 62
     1
100
AcDbLine
 10
198.82403071
 20
201.936280861
 30
0.0
 11
198.82403071
 21
195.736280861
 31
0.0
  0
LINE
  5
207
330
1F
100
AcDbEntity
  8
0
  6
Continuous
 62
     1
100
AcDbLine
 10
198.82403071
 20
195.736280861
 30
0.0
 11
200.82403071
 21
195.736280861
 31
0.0
  0
LINE
  5
208
330
1F
100
AcDbEntity
  8
0
  6
Continuous
 62
     1
100
AcDbLine
 10
205.82403071
 20
194.356280861
 30
0.0
 11
205.82403071
 21
195.736280861
 31
0.0
  0
LINE
  5
209
330
1F
100
AcDbEntity
  8
0
  6
Continuous
 62
     1
100
AcDbLine
 10
205.82403071
 20
195.736280861
 30
0.0
 11
205.82403071
 21
194.306280861
 31
0.0
  0
LINE
  5
20A
330
1F
100
AcDbEntity
  8
0
  6
Continuous
 62
     1
100
AcDbLine
 10
205.82403071
 20
194.306280861
 30
0.0
 11
200.82403071
 21
194.306280861
 31
0.0
  0
LINE
  5
20B
330
1F
100
AcDbEntity
  8
0
  6
Continuous
 62
     1
100
AcDbLine
 10
200.82403071
 20
194.306280861
 30
0.0
 11
200.82403071
 21
188.106280861
 31
0.0
  0
LINE
  5
20C
330
1F
100
AcDbEntity
  8
0
  6
Continuous
 62
     1
100
AcDbLine
 10
200.82403071
 20
188.106280861
 30
0.0
 11
205.82403071
 21
188.106280861
 31
0.0
  0
LINE
  5
20D
330
1F
100
AcDbEntity
  8
0
  6
Continuous
 62
     1
100
AcDbLine
 10
201.82403071
 20
194.306280861
 30
0.0
 11
201.82403071
 21
188.106280861
 31
0.0
  0
LINE
  5
20E
330
1F
100
AcDbEntity
  8
0
  6
Continuous
 62
     1
100
AcDbLine
 10
201.82403071
 20
194.206280861
 30
0.0
 11
202.82403071
 21
194.206280861
 31
0.0
  0
LINE
  5
20F
330
1F
100
AcDbEntity
  8
0
  6
Continuous
 62
     1
100
AcDbLine
 10
202.82403071
 20
188.206280861
 30
0.0
 11
201.82403071
 21
188.206280861
 31
0.0
  0
LINE
  5
210
330
1F
100
AcDbEntity
  8
0
  6
Continuous
 62
     1
100
AcDbLine
 10
202.82403071
 20
188.206280861
 30
0.0
 11
202.82403071
 21
194.206280861
 31
0.0
  0
LINE
  5
211
330
1F
100
AcDbEntity
  8
0
  6
Continuous
 62
     1
100
AcDbLine
 10
202.82403071
 20
191.206280861
 30
0.0
 11
201.82403071
 21
192.206280861
 31
0.0
  0
LINE
  5
212
330
1F
100
AcDbEntity
  8
0
  6
Continuous
 62
     1
100
AcDbLine
 10
202.82403071
 20
190.206280861
 30
0.0
 11
201.82403071
 21
191.206280861
 31
0.0
  0
ARC
  5
213
330
1F
100
AcDbEntity
  8
0
  6
Continuous
 62
     1
100
AcDbCircle
 10
202.82403071
 20
192.706280861
 30
0.0
 40
1.5
100
AcDbArc
 50
0.0
 51
90.0
  0
ARC
  5
214
330
1F
100
AcDbEntity
  8
0
  6
Continuous
 62
     1
100
AcDbCircle
 10
202.82403071
 20
189.706280861
 30
0.0
 40
1.5
100
AcDbArc
 50
270.0
 51
0.0
  0
LINE
  5
215
330
1F
100
AcDbEntity
  8
0
  6
Continuous
 62
     1
100
AcDbLine
 10
204.32403071
 20
189.706280861
 30
0.0
 11
204.32403071
 21
192.706280861
 31
0.0
  0
LINE
  5
216
330
1F
100
AcDbEntity
  8
0
  6
Continuous
 62
     1
100
AcDbLine
 10
200.82403071
 20
194.306280861
 30
0.0
 11
198.82403071
 21
194.306280861
 31
0.0
  0
LINE
  5
217
330
1F
100
AcDbEntity
  8
0
  6
Continuous
 62
     1
100
AcDbLine
 10
198.82403071
 20
194.306280861
 30
0.0
 11
198.82403071
 21
188.106280861
 31
0.0
  0
LINE
  5
218
330
1F
100
AcDbEntity
  8
0
  6
Continuous
 62
     1
100
AcDbLine
 10
198.82403071
 20
188.106280861
 30
0.0
 11
200.82403071
 21
188.106280861
 31
0.0
  0
LINE
  5
219
330
1F
100
AcDbEntity
  8
0
  6
Continuous
 62
     1
100
AcDbLine
 10
205.82403071
 20
186.726280861
 30
0.0
 11
205.82403071
 21
188.106280861
 31
0.0
  0
LINE
  5
21A
330
1F
100
AcDbEntity
  8
0
  6
Continuous
 62
     1
100
AcDbLine
 10
205.82403071
 20
188.106280861
 30
0.0
 11
205.82403071
 21
186.676280861
 31
0.0
  0
LINE
  5
21B
330
1F
100
AcDbEntity
  8
0
  6
Continuous
 62
     1
100
AcDbLine
 10
205.82403071
 20
186.676280861
 30
0.0
 11
200.82403071
 21
186.676280861
 31
0.0
  0
LINE
  5
21C
330
1F
100
AcDbEntity
  8
0
  6
Continuous
 62
     1
100
AcDbLine
 10
200.82403071
 20
186.676280861
 30
0.0
 11
200.82403071
 21
180.476280861
 31
0.0
  0
LINE
  5
21D
330
1F
100
AcDbEntity
  8
0
  6
Continuous
 62
     1
100
AcDbLine
 10
200.82403071
 20
180.476280861
 30
0.0
 11
205.82403071
 21
180.476280861
 31
0.0
  0
LINE
  5
21E
330
1F
100
AcDbEntity
  8
0
  6
Continuous
 62
     1
100
AcDbLine
 10
201.82403071
 20
186.676280861
 30
0.0
 11
201.82403071
 21
180.476280861
 31
0.0
  0
LINE
  5
21F
330
1F
100
AcDbEntity
  8
0
  6
Continuous
 62
     1
100
AcDbLine
 10
201.82403071
 20
186.576280861
 30
0.0
 11
202.82403071
 21
186.576280861
 31
0.0
  0
LINE
  5
220
330
1F
100
AcDbEntity
  8
0
  6
Continuous
 62
     1
100
AcDbLine
 10
202.82403071
 20
180.576280861
 30
0.0
 11
201.82403071
 21
180.576280861
 31
0.0
  0
LINE
  5
221
330
1F
100
AcDbEntity
  8
0
  6
Continuous
 62
     1
100
AcDbLine
 10
202.82403071
 20
180.576280861
 30
0.0
 11
202.82403071
 21
186.576280861
 31
0.0
  0
LINE
  5
222
330
1F
100
AcDbEntity
  8
0
  6
Continuous
 62
     1
100
AcDbLine
 10
202.82403071
 20
183.576280861
 30
0.0
 11
201.82403071
 21
184.576280861
 31
0.0
  0
LINE
  5
223
330
1F
100
AcDbEntity
  8
0
  6
Continuous
 62
     1
100
AcDbLine
 10
202.82403071
 20
182.576280861
 30
0.0
 11
201.82403071
 21
183.576280861
 31
0.0
  0
ARC
  5
224
330
1F
100
AcDbEntity
  8
0
  6
Continuous
 62
     1
100
AcDbCircle
 10
202.82403071
 20
185.076280861
 30
0.0
 40
1.5
100
AcDbArc
 50
0.0
 51
90.0
  0
ARC
  5
225
330
1F
100
AcDbEntity
  8
0
  6
Continuous
 62
     1
100
AcDbCircle
 10
202.82403071
 20
182.076280861
 30
0.0
 40
1.5
100
AcDbArc
 50
270.0
 51
0.0
  0
LINE
  5
226
330
1F
100
AcDbEntity
  8
0
  6
Continuous
 62
     1
100
AcDbLine
 10
204.32403071
 20
182.076280861
 30
0.0
 11
204.32403071
 21
185.076280861
 31
0.0
  0
LINE
  5
227
330
1F
100
AcDbEntity
  8
0
  6
Continuous
 62
     1
100
AcDbLine
 10
200.82403071
 20
186.676280861
 30
0.0
 11
198.82403071
 21
186.676280861
 31
0.0
  0
LINE
  5
228
330
1F
100
AcDbEntity
  8
0
  6
Continuous
 62
     1
100
AcDbLine
 10
198.82403071
 20
186.676280861
 30
0.0
 11
198.82403071
 21
180.476280861
 31
0.0
  0
LINE
  5
229
330
1F
100
AcDbEntity
  8
0
  6
Continuous
 62
     1
100
AcDbLine
 10
198.82403071
 20
180.476280861
 30
0.0
 11
200.82403071
 21
180.476280861
 31
0.0
  0
LINE
  5
22A
330
1F
100
AcDbEntity
  8
0
  6
Continuous
 62
     1
100
AcDbLine
 10
205.82403071
 20
179.096280861
 30
0.0
 11
205.82403071
 21
180.476280861
 31
0.0
  0
LINE
  5
22B
330
1F
100
AcDbEntity
  8
0
  6
Continuous
 62
     1
100
AcDbLine
 10
205.82403071
 20
180.476280861
 30
0.0
 11
205.82403071
 21
179.046280861
 31
0.0
  0
LINE
  5
22C
330
1F
100
AcDbEntity
  8
0
  6
Continuous
 62
     1
100
AcDbLine
 10
200.82403071
 20
179.116280861
 30
0.0
 11
200.82403071
 21
178.506280861
 31
0.0
  0
LINE
  5
22D
330
1F
100
AcDbEntity
  8
0
  6
Continuous
 62
     1
100
AcDbLine
 10
200.82403071
 20
178.506280861
 30
0.0
 11
198.82403071
 21
178.506280861
 31
0.0
  0
LINE
  5
22E
330
1F
100
AcDbEntity
  8
0
  6
Continuous
 62
     1
100
AcDbLine
 10
198.82403071
 20
178.506280861
 30
0.0
 11
198.82403071
 21
179.116280861
 31
0.0
  0
LINE
  5
22F
330
1F
100
AcDbEntity
  8
0
  6
Continuous
 62
     1
100
AcDbLine
 10
205.82403071
 20
179.096280861
 30
0.0
 11
198.82403071
 21
179.116280861
 31
0.0
  0
LINE
  5
230
330
1F
100
AcDbEntity
  8
0
  6
Continuous
 62
     1
100
AcDbLine
 10
198.82403071
 20
178.506280861
 30
0.0
 11
195.52403071
 21
178.506280861
 31
0.0
  0
LINE
  5
231
330
1F
100
AcDbEntity
  8
0
  6
Continuous
 62
     1
100
AcDbLine
 10
195.52403071
 20
178.506280861
 30
0.0
 11
195.52403071
 21
226.976280861
 31
0.0
  0
TEXT
  5
232
330
1F
100
AcDbEntity
  8
0
  6
Continuous
 62
     1
100
AcDbText
 10
186.56403071
 20
182.456280861
 30
0.0
 40
2.5
  1
＋ＤＣ
 41
0.5
  7
KANJI2
100
AcDbText
  0
LWPOLYLINE
  5
235
330
1F
100
AcDbEntity
  8
0
  6
Continuous
 62
     1
100
AcDbPolyline
 90
     4
 70
   129
 43
0.0
 10
190.81403071
 20
189.95628086
 42
1.0
 10
190.81403071
 20
192.456280861
 42
0.0
 10
187.31403071
 20
192.456280861
 42
1.0
 10
187.31403071
 20
189.95628086
 42
0.0
  0
LWPOLYLINE
  5
238
330
1F
100
AcDbEntity
  8
0
  6
Continuous
 62
     1
100
AcDbPolyline
 90
     4
 70
   129
 43
0.0
 10
190.81403071
 20
182.456280861
 42
1.0
 10
190.81403071
 20
184.956280861
 42
0.0
 10
187.31403071
 20
184.956280861
 42
1.0
 10
187.31403071
 20
182.456280861
 42
0.0
  0
TEXT
  5
23A
330
1F
100
AcDbEntity
  8
0
  6
Continuous
 62
     1
100
AcDbText
 10
186.06403071
 20
189.95628086
 30
0.0
 40
2.5
  1
　０Ｖ
 41
0.5
  7
KANJI2
100
AcDbText
  0
TEXT
  5
23B
330
1F
100
AcDbEntity
  8
0
  6
Continuous
 62
     1
100
AcDbText
 10
184.06403071
 20
186.206280861
 30
0.0
 40
2.5
  1
ＩＮ
 41
0.5
  7
KANJI2
100
AcDbText
  0
LINE
  5
23C
330
1F
100
AcDbEntity
  8
0
  6
Continuous
 62
     1
100
AcDbLine
 10
186.06403071
 20
191.206283558
 30
0.0
 11
185.06403071
 21
191.206283558
 31
0.0
  0
LINE
  5
23D
330
1F
100
AcDbEntity
  8
0
  6
Continuous
 62
     1
100
AcDbLine
 10
185.06403071
 20
191.206283558
 30
0.0
 11
185.06403071
 21
188.706280861
 31
0.0
  0
LINE
  5
23E
330
1F
100
AcDbEntity
  8
0
  6
Continuous
 62
     1
100
AcDbLine
 10
185.06403071
 20
186.206280861
 30
0.0
 11
185.06403071
 21
183.706280861
 31
0.0
  0
LINE
  5
23F
330
1F
100
AcDbEntity
  8
0
  6
Continuous
 62
     1
100
AcDbLine
 10
185.06403071
 20
183.706280861
 30
0.0
 11
186.06403071
 21
183.706280861
 31
0.0
  0
LWPOLYLINE
  5
241
330
1F
100
AcDbEntity
  8
0
  6
Continuous
 62
     1
100
AcDbPolyline
 90
     4
 70
   129
 43
0.0
 10
190.81403071
 20
197.58628086
 42
1.0
 10
190.81403071
 20
200.086280861
 42
0.0
 10
187.31403071
 20
200.086280861
 42
1.0
 10
187.31403071
 20
197.58628086
 42
0.0
  0
TEXT
  5
243
330
1F
100
AcDbEntity
  8
0
  6
Continuous
 62
     1
100
AcDbText
 10
186.56403071
 20
205.726277046
 30
0.0
 40
2.5
  1
＋ＤＣ
 41
0.5
  7
KANJI2
100
AcDbText
  0
TEXT
  5
244
330
1F
100
AcDbEntity
  8
0
  6
Continuous
 62
     1
100
AcDbText
 10
186.56403071
 20
212.976277046
 30
0.0
 40
2.5
  1
ＣＯＭ
 41
0.5
  7
KANJI2
100
AcDbText
  0
TEXT
  5
245
330
1F
100
AcDbEntity
  8
0
  6
Continuous
 62
     1
100
AcDbText
 10
186.56403071
 20
220.476277046
 30
0.0
 40
2.5
  1
－ＤＣ
 41
0.5
  7
KANJI2
100
AcDbText
  0
LWPOLYLINE
  5
247
330
1F
100
AcDbEntity
  8
0
  6
Continuous
 62
     1
100
AcDbPolyline
 90
     4
 70
   129
 43
0.0
 10
190.81403071
 20
220.476277046
 42
1.0
 10
190.81403071
 20
222.976277046
 42
0.0
 10
187.31403071
 20
222.976277046
 42
1.0
 10
187.31403071
 20
220.476277046
 42
0.0
  0
LWPOLYLINE
  5
24A
330
1F
100
AcDbEntity
  8
0
  6
Continuous
 62
     1
100
AcDbPolyline
 90
     4
 70
   129
 43
0.0
 10
190.81403071
 20
212.976277046
 42
1.0
 10
190.81403071
 20
215.476277046
 42
0.0
 10
187.31403071
 20
215.476277046
 42
1.0
 10
187.31403071
 20
212.976277046
 42
0.0
  0
LWPOLYLINE
  5
24D
330
1F
100
AcDbEntity
  8
0
  6
Continuous
 62
     1
100
AcDbPolyline
 90
     4
 70
   129
 43
0.0
 10
190.81403071
 20
205.726277046
 42
1.0
 10
190.81403071
 20
208.226277046
 42
0.0
 10
187.31403071
 20
208.226277046
 42
1.0
 10
187.31403071
 20
205.726277046
 42
0.0
  0
TEXT
  5
24F
330
1F
100
AcDbEntity
  8
0
  6
Continuous
 62
     1
100
AcDbText
 10
184.06403071
 20
216.726277046
 30
0.0
 40
2.5
  1
ＯＵＴ
 41
0.5
  7
KANJI2
100
AcDbText
  0
LINE
  5
250
330
1F
100
AcDbEntity
  8
0
  6
Continuous
 62
     1
100
AcDbLine
 10
186.06403071
 20
221.726280861
 30
0.0
 11
185.06403071
 21
221.726280861
 31
0.0
  0
LINE
  5
251
330
1F
100
AcDbEntity
  8
0
  6
Continuous
 62
     1
100
AcDbLine
 10
185.06403071
 20
221.726280861
 30
0.0
 11
185.06403071
 21
219.226277046
 31
0.0
  0
LINE
  5
252
330
1F
100
AcDbEntity
  8
0
  6
Continuous
 62
     1
100
AcDbLine
 10
185.06403071
 20
216.726277046
 30
0.0
 11
185.06403071
 21
206.976279743
 31
0.0
  0
LINE
  5
253
330
1F
100
AcDbEntity
  8
0
  6
Continuous
 62
     1
100
AcDbLine
 10
185.06403071
 20
206.976279743
 30
0.0
 11
186.06403071
 21
206.976279743
 31
0.0
  0
LINE
  5
254
330
1F
100
AcDbEntity
  8
0
  6
Continuous
 62
     1
100
AcDbLine
 10
186.06403071
 20
214.226279743
 30
0.0
 11
185.06403071
 21
214.226279743
 31
0.0
  0
LWPOLYLINE
  5
256
330
1F
100
AcDbEntity
  8
0
  6
Continuous
 62
     1
100
AcDbPolyline
 90
     4
 70
   129
 43
0.0
 10
182.52403071
 20
178.976280861
 10
194.52403071
 20
178.976280861
 10
194.52403071
 20
226.976280861
 10
182.52403071
 20
226.976280861
  0
TEXT
  5
257
330
1F
100
AcDbEntity
  8
0
  6
Continuous
 62
     1
100
AcDbText
 10
185.81403071
 20
197.59628086
 30
0.0
 40
2.5
  1
　ＮＣ
 41
0.5
  7
KANJI2
100
AcDbText
  0
LWPOLYLINE
  5
259
330
1F
100
AcDbEntity
  8
0
  6
Continuous
 62
     2
100
AcDbPolyline
 90
     4
 70
   129
 43
0.0
 10
125.52403071
 20
177.976280861
 10
195.52403071
 20
177.976280861
 10
195.52403071
 20
227.976280861
 10
125.52403071
 20
227.976280861
  0
LINE
  5
25A
330
1F
100
AcDbEntity
  8
0
  6
Continuous
 62
     1
100
AcDbLine
 10
124.52403071
 20
138.616280861
 30
0.0
 11
116.58403071
 21
138.616280861
 31
0.0
  0
LINE
  5
25B
330
1F
100
AcDbEntity
  8
0
  6
Continuous
 62
     1
100
AcDbLine
 10
118.58403071
 20
138.616280861
 30
0.0
 11
119.231078323
 21
141.031095426
 31
0.0
  0
LINE
  5
25C
330
1F
100
AcDbEntity
  8
0
  6
Continuous
 62
     1
100
AcDbLine
 10
118.58403071
 20
138.616280861
 30
0.0
 11
117.936983098
 21
141.031095426
 31
0.0
  0
LWPOLYLINE
  5
25E
330
1F
100
AcDbEntity
  8
0
  6
Continuous
 62
     1
100
AcDbPolyline
 90
     3
 70
   128
 43
0.0
 10
118.58403071
 20
138.616280861
 10
118.58403071
 20
164.616280861
 10
117.936983098
 20
162.201466295
  0
LINE
  5
25F
330
1F
100
AcDbEntity
  8
0
  6
Continuous
 62
     1
100
AcDbLine
 10
118.58403071
 20
164.616280861
 30
0.0
 11
119.231078323
 21
162.201466295
 31
0.0
  0
LINE
  5
260
330
1F
100
AcDbEntity
  8
0
  6
Continuous
 62
     1
100
AcDbLine
 10
124.52403071
 20
164.616280861
 30
0.0
 11
116.58403071
 21
164.616280861
 31
0.0
  0
TEXT
  5
261
330
1F
100
AcDbEntity
  8
0
  6
Continuous
 62
     1
100
AcDbText
 10
117.58403071
 20
148.716280861
 30
0.0
 40
3.0
  1
２６
 50
90.0
 41
0.933333333
 51
15.0
  7
KANJI1
100
AcDbText
  0
LINE
  5
262
330
1F
100
AcDbEntity
  8
0
  6
Continuous
 62
     1
100
AcDbLine
 10
205.82403071
 20
52.206280861
 30
0.0
 11
205.82403071
 21
36.216280861
 31
0.0
  0
LINE
  5
263
330
1F
100
AcDbEntity
  8
0
  6
Continuous
 62
     1
100
AcDbLine
 10
205.82403071
 20
38.216280861
 30
0.0
 11
203.409216145
 21
38.863328473
 31
0.0
  0
LINE
  5
264
330
1F
100
AcDbEntity
  8
0
  6
Continuous
 62
     1
100
AcDbLine
 10
205.82403071
 20
38.216280861
 30
0.0
 11
203.409216145
 21
37.569233248
 31
0.0
  0
LWPOLYLINE
  5
266
330
1F
100
AcDbEntity
  8
0
  6
Continuous
 62
     1
100
AcDbPolyline
 90
     3
 70
   128
 43
0.0
 10
223.12403071
 20
38.216280861
 10
195.52403071
 20
38.216280861
 10
197.938845276
 20
37.569233248
  0
LINE
  5
267
330
1F
100
AcDbEntity
  8
0
  6
Continuous
 62
     1
100
AcDbLine
 10
195.52403071
 20
38.216280861
 30
0.0
 11
197.938845276
 21
38.863328473
 31
0.0
  0
LINE
  5
268
330
1F
100
AcDbEntity
  8
0
  6
Continuous
 62
     1
100
AcDbLine
 10
195.52403071
 20
50.616280861
 30
0.0
 11
195.52403071
 21
36.216280861
 31
0.0
  0
TEXT
  5
269
330
1F
100
AcDbEntity
  8
0
  6
Continuous
 62
     1
100
AcDbText
 10
208.32403071
 20
39.216280861
 30
0.0
 40
3.0
  1
１１ｍａｘ
 41
0.933333333
 51
15.0
  7
KANJI1
100
AcDbText
  0
LINE
  5
26A
330
1F
100
AcDbEntity
  8
0
  6
Continuous
 62
     1
100
AcDbLine
 10
251.95403071
 20
110.136280861
 30
0.0
 11
258.15403071
 21
110.136280861
 31
0.0
  0
LINE
  5
26B
330
1F
100
AcDbEntity
  8
0
  6
Continuous
 62
     1
100
AcDbLine
 10
262.31403071
 20
90.386280861
 30
0.0
 11
264.59272907
 21
91.414645477
 31
0.0
  0
LINE
  5
26C
330
1F
100
AcDbEntity
  8
0
  6
Continuous
 62
     1
100
AcDbLine
 10
262.31403071
 20
90.386280861
 30
0.0
 11
263.773259069
 21
92.416219923
 31
0.0
  0
LWPOLYLINE
  5
26E
330
1F
100
AcDbEntity
  8
0
  6
Continuous
 62
     1
100
AcDbPolyline
 90
     3
 70
   128
 43
0.0
 10
262.31403071
 20
90.386280861
 10
269.90403071
 20
96.596280861
 10
275.70403071
 20
96.596280861
  0
TEXT
  5
26F
330
1F
100
AcDbEntity
  8
0
  6
Continuous
 62
     1
100
AcDbText
 10
249.7
 20
202.96
 30
0.0
 40
2.5
  1
公差：±１
 41
1.0
  7
KANJI3
100
AcDbText
  0
TEXT
  5
271
330
1F
100
AcDbEntity
  8
0
  6
Continuous
 62
     1
100
AcDbText
 10
249.7
 20
195.46
 30
0.0
 40
2.5
  1
単位：ｍｍ
 41
1.0
  7
KANJI3
100
AcDbText
  0
TEXT
  5
272
330
1F
100
AcDbEntity
  8
0
  6
Continuous
 62
     1
100
AcDbText
 10
249.7
 20
180.46
 30
0.0
 40
2.5
  1
内部構造：シリコンゴム充填
 41
1.0
  7
KANJI3
100
AcDbText
  0
TEXT
  5
273
330
1F
100
AcDbEntity
  8
0
  6
Continuous
 62
     1
100
AcDbText
 10
249.7
 20
172.96
 30
0.0
 40
2.5
  1
ケース：アルミ
 41
1.0
  7
KANJI3
100
AcDbText
  0
TEXT
  5
274
330
1F
100
AcDbEntity
  8
0
  6
Continuous
 62
     1
100
AcDbText
 10
249.7
 20
165.46
 30
0.0
 40
2.5
  1
表面処理：Ｎ１．５半艶塗装
 41
1.0
  7
KANJI3
100
AcDbText
  0
TEXT
  5
275
330
1F
100
AcDbEntity
  8
0
  6
Continuous
 62
     1
100
AcDbText
 10
249.7
 20
187.96
 30
0.0
 40
2.5
  1
質量：２００ｇ
 41
1.0
  7
KANJI3
100
AcDbText
  0
TEXT
  5
276
330
1F
100
AcDbEntity
  8
0
  6
Continuous
 62
     1
100
AcDbText
 10
249.7
 20
157.96
 30
0.0
 40
2.5
  1
端子カバー：無し
 41
1.0
  7
KANJI4
100
AcDbText
  0
TEXT
  5
278
330
1F
100
AcDbEntity
  8
0
  6
Continuous
 62
     1
100
AcDbText
 10
143.57403071
 20
201.376280861
 30
0.0
 40
3.0
  1
銘　板
 41
1.0
  7
KANJI5
100
AcDbText
  0
LINE
  5
27A
330
1F
100
AcDbEntity
  8
0
  6
Continuous
 62
     1
100
AcDbLine
 10
246.696587101
 20
98.346280861
 30
0.0
 11
248.271014891
 21
100.288232748
 31
0.0
  0
LINE
  5
27B
330
1F
100
AcDbEntity
  8
0
  6
Continuous
 62
     1
100
AcDbLine
 10
246.696587101
 20
98.346280861
 30
0.0
 11
247.08910562
 21
100.815274423
 31
0.0
  0
LWPOLYLINE
  5
27D
330
1F
100
AcDbEntity
  8
0
  6
Continuous
 62
     1
100
AcDbPolyline
 90
     3
 70
   128
 43
0.0
 10
246.696587101
 20
98.346280861
 10
251.95403071
 20
110.136280861
 10
272.65403071
 20
110.136280861
  0
TEXT
  5
27E
330
1F
100
AcDbEntity
  8
0
  6
Continuous
 62
     1
100
AcDbText
 10
251.95403071
 20
111.136280861
 30
0.0
 40
3.0
  1
６－Ｍ３　端子ネジ
 41
0.9
 51
15.0
  7
KANJI6
100
AcDbText
  0
TEXT
  5
280
330
1F
100
AcDbEntity
  8
0
  6
Continuous
 62
     1
100
AcDbText
 10
269.90403071
 20
97.596280861
 30
0.0
 40
3.0
  1
銘板
 41
0.9
 51
15.0
  7
KANJI6
100
AcDbText
  0
LINE
  5
281
330
1F
100
AcDbEntity
  8
0
  6
Continuous
 62
     1
100
AcDbLine
 10
186.25403071
 20
93.395318966
 30
0.0
 11
187.734459183
 21
95.40984907
 31
0.0
  0
LINE
  5
282
330
1F
100
AcDbEntity
  8
0
  6
Continuous
 62
     1
100
AcDbLine
 10
186.25403071
 20
93.395318966
 30
0.0
 11
186.528854324
 21
95.880167449
 31
0.0
  0
LWPOLYLINE
  5
284
330
1F
100
AcDbEntity
  8
0
  6
Continuous
 62
     1
100
AcDbPolyline
 90
     3
 70
   128
 43
0.0
 10
186.25403071
 20
93.395318966
 10
193.35403071
 20
111.595318966
 10
225.85403071
 20
111.595318966
  0
TEXT
  5
285
330
1F
100
AcDbEntity
  8
0
  6
Continuous
 62
     1
100
AcDbText
 10
193.35403071
 20
112.595318966
 30
0.0
 40
3.0
  1
４－Ｍ３×Ｄ５　取付用ネジ穴
 41
0.9
 51
15.0
  7
KANJI6
100
AcDbText
  0
ENDSEC
  0
SECTION
  2
OBJECTS
  0
DICTIONARY
  5
C
330
0
100
AcDbDictionary
280
     0
281
     1
  3
ACAD_GROUP
350
D
  3
ACAD_LAYOUT
350
1A
  3
ACAD_MLINESTYLE
350
17
  3
ACAD_PLOTSETTINGS
350
19
  3
ACAD_PLOTSTYLENAME
350
E
  0
DICTIONARY
  5
D
102
{ACAD_REACTORS
330
C
102
}
330
C
100
AcDbDictionary
280
     0
281
     1
  0
DICTIONARY
  5
1A
102
{ACAD_REACTORS
330
C
102
}
330
C
100
AcDbDictionary
280
     0
281
     1
  3
Model
350
22
  3
ﾚｲｱｳﾄ1
350
1E
  3
ﾚｲｱｳﾄ2
350
26
  0
LAYOUT
  5
22
102
{ACAD_REACTORS
330
1A
102
}
330
1A
100
AcDbPlotSettings
  1

  2

  4

  6

 40
0.0
 41
0.0
 42
0.0
 43
0.0
 44
0.0
 45
0.0
 46
0.0
 47
0.0
 48
0.0
 49
0.0
140
0.0
141
0.0
142
1.0
143
1.0
 70
  1712
 72
     0
 73
     0
 74
     0
  7

 75
     0
147
1.0
148
0.0
149
0.0
100
AcDbLayout
  1
Model
 70
     1
 71
     0
 10
0.0
 20
0.0
 11
0.0
 21
0.0
 12
0.0
 22
0.0
 32
0.0
 14
0.0
 24
0.0
 34
0.0
 15
0.0
 25
0.0
 35
0.0
146
0.0
 13
0.0
 23
0.0
 33
0.0
 16
1.0
 26
0.0
 36
0.0
 17
0.0
 27
1.0
 37
0.0
 76
     0
330
1F
331
0
345
0
346
0
  0
LAYOUT
  5
1E
102
{ACAD_REACTORS
330
1A
102
}
330
1A
100
AcDbPlotSettings
  1

  2

  4

  6

 40
0.0
 41
0.0
 42
0.0
 43
0.0
 44
0.0
 45
0.0
 46
0.0
 47
0.0
 48
0.0
 49
0.0
140
0.0
141
0.0
142
1.0
143
1.0
 70
   688
 72
     0
 73
     0
 74
     5
  7

 75
    16
147
1.0
148
0.0
149
0.0
100
AcDbLayout
  1
ﾚｲｱｳﾄ1
 70
     1
 71
     1
 10
0.0
 20
0.0
 11
0.0
 21
0.0
 12
0.0
 22
0.0
 32
0.0
 14
0.0
 24
0.0
 34
0.0
 15
0.0
 25
0.0
 35
0.0
146
0.0
 13
0.0
 23
0.0
 33
0.0
 16
1.0
 26
0.0
 36
0.0
 17
0.0
 27
1.0
 37
0.0
 76
     0
330
1B
331
0
345
0
346
0
  0
LAYOUT
  5
26
102
{ACAD_REACTORS
330
1A
102
}
330
1A
100
AcDbPlotSettings
  1

  2

  4

  6

 40
0.0
 41
0.0
 42
0.0
 43
0.0
 44
0.0
 45
0.0
 46
0.0
 47
0.0
 48
0.0
 49
0.0
140
0.0
141
0.0
142
1.0
143
1.0
 70
   688
 72
     0
 73
     0
 74
     5
  7

 75
    16
147
1.0
148
0.0
149
0.0
100
AcDbLayout
  1
ﾚｲｱｳﾄ2
 70
     1
 71
     2
 10
0.0
 20
0.0
 11
0.0
 21
0.0
 12
0.0
 22
0.0
 32
0.0
 14
0.0
 24
0.0
 34
0.0
 15
0.0
 25
0.0
 35
0.0
146
0.0
 13
0.0
 23
0.0
 33
0.0
 16
1.0
 26
0.0
 36
0.0
 17
0.0
 27
1.0
 37
0.0
 76
     0
330
23
331
0
345
0
346
0
  0
DICTIONARY
  5
17
102
{ACAD_REACTORS
330
C
102
}
330
C
100
AcDbDictionary
280
     0
281
     1
  3
Standard
350
18
  0
MLINESTYLE
  5
18
102
{ACAD_REACTORS
330
17
102
}
330
17
100
AcDbMlineStyle
  2
STANDARD
 70
     0
  3

 62
   256
 51
90.0
 52
90.0
 71
     2
 49
0.5
 62
   256
  6
ByLayer
 49
-0.5
 62
   256
  6
ByLayer
  0
DICTIONARY
  5
19
102
{ACAD_REACTORS
330
C
102
}
330
C
100
AcDbDictionary
280
     0
281
     1
  0
ACDBDICTIONARYWDFLT
  5
E
330
C
100
AcDbDictionary
281
     0
  3
Normal
350
F
100
AcDbDictionaryWithDefault
340
F
  0
ACDBPLACEHOLDER
  5
F
102
{ACAD_REACTORS
330
E
102
}
330
E
  0
ENDSEC
  0
EOF
