  0
SECTION
  2
HEADER
  9
$ACADVER
  1
AC1015
  9
$ACADMAINTVER
 70
     6
  9
$DWGCODEPAGE
  3
ANSI_932
  9
$INSBASE
 10
0.0
 20
0.0
 30
0.0
  9
$EXTMIN
 10
0.0
 20
0.0
 30
1.000000E+20
  9
$EXTMAX
 10
840.0
 20
594.0
 30
-1.000000E+20
  9
$LIMMIN
 10
0.0
 20
0.0
  9
$LIMMAX
 10
840.0
 20
594.0
  9
$ORTHOMODE
 70
     0
  9
$REGENMODE
 70
     1
  9
$FILLMODE
 70
     1
  9
$QTEXTMODE
 70
     0
  9
$MIRRTEXT
 70
     1
  9
$LTSCALE
 40
1.0
  9
$ATTMODE
 70
     1
  9
$TEXTSIZE
 40
2.5
  9
$TRACEWID
 40
1.0
  9
$TEXTSTYLE
  7
Standard
  9
$CLAYER
  8
0
  9
$CELTYPE
  6
ByLayer
  9
$CECOLOR
 62
   256
  9
$CELTSCALE
 40
1.0
  9
$DISPSILH
 70
     0
  9
$DIMSCALE
 40
1.0
  9
$DIMASZ
 40
2.5
  9
$DIMEXO
 40
0.625
  9
$DIMDLI
 40
3.75
  9
$DIMRND
 40
0.0
  9
$DIMDLE
 40
0.0
  9
$DIMEXE
 40
1.25
  9
$DIMTP
 40
0.0
  9
$DIMTM
 40
0.0
  9
$DIMTXT
 40
2.5
  9
$DIMCEN
 40
2.5
  9
$DIMTSZ
 40
0.0
  9
$DIMTOL
 70
     0
  9
$DIMLIM
 70
     0
  9
$DIMTIH
 70
     0
  9
$DIMTOH
 70
     0
  9
$DIMSE1
 70
     0
  9
$DIMSE2
 70
     0
  9
$DIMTAD
 70
     1
  9
$DIMZIN
 70
     8
  9
$DIMBLK
  1

  9
$DIMASO
 70
     1
  9
$DIMSHO
 70
     1
  9
$DIMPOST
  1

  9
$DIMAPOST
  1

  9
$DIMALT
 70
     0
  9
$DIMALTD
 70
     3
  9
$DIMALTF
 40
0.03937007874016
  9
$DIMLFAC
 40
1.0
  9
$DIMTOFL
 70
     1
  9
$DIMTVP
 40
0.0
  9
$DIMTIX
 70
     0
  9
$DIMSOXD
 70
     0
  9
$DIMSAH
 70
     0
  9
$DIMBLK1
  1

  9
$DIMBLK2
  1

  9
$DIMSTYLE
  2
ISO-25
  9
$DIMCLRD
 70
     0
  9
$DIMCLRE
 70
     0
  9
$DIMCLRT
 70
     0
  9
$DIMTFAC
 40
1.0
  9
$DIMGAP
 40
0.625
  9
$DIMJUST
 70
     0
  9
$DIMSD1
 70
     0
  9
$DIMSD2
 70
     0
  9
$DIMTOLJ
 70
     0
  9
$DIMTZIN
 70
     8
  9
$DIMALTZ
 70
     0
  9
$DIMALTTZ
 70
     0
  9
$DIMUPT
 70
     0
  9
$DIMDEC
 70
     2
  9
$DIMTDEC
 70
     2
  9
$DIMALTU
 70
     2
  9
$DIMALTTD
 70
     3
  9
$DIMTXSTY
  7
Standard
  9
$DIMAUNIT
 70
     0
  9
$DIMADEC
 70
     0
  9
$DIMALTRND
 40
0.0
  9
$DIMAZIN
 70
     0
  9
$DIMDSEP
 70
    46
  9
$DIMATFIT
 70
     3
  9
$DIMFRAC
 70
     0
  9
$DIMLDRBLK
  1

  9
$DIMLUNIT
 70
     2
  9
$DIMLWD
 70
    -2
  9
$DIMLWE
 70
    -2
  9
$DIMTMOVE
 70
     0
  9
$LUNITS
 70
     2
  9
$LUPREC
 70
     4
  9
$SKETCHINC
 40
1.0
  9
$FILLETRAD
 40
10.0
  9
$AUNITS
 70
     0
  9
$AUPREC
 70
     0
  9
$MENU
  1
.
  9
$ELEVATION
 40
0.0
  9
$PELEVATION
 40
0.0
  9
$THICKNESS
 40
0.0
  9
$LIMCHECK
 70
     0
  9
$CHAMFERA
 40
10.0
  9
$CHAMFERB
 40
10.0
  9
$CHAMFERC
 40
20.0
  9
$CHAMFERD
 40
0.0
  9
$SKPOLY
 70
     0
  9
$TDCREATE
 40
2455367.000000
  9
$TDUCREATE
 40
0.000000000
  9
$TDUPDATE
 40
2455367.000000
  9
$TDUUPDATE
 40
2455367.000000
  9
$TDINDWG
 40
0.0
  9
$TDUSRTIMER
 40
0.0
  9
$USRTIMER
 70
     1
  9
$ANGBASE
 50
0.0
  9
$ANGDIR
 70
     0
  9
$PDMODE
 70
     0
  9
$PDSIZE
 40
0.0
  9
$PLINEWID
 40
0.0
  9
$SPLFRAME
 70
     0
  9
$SPLINETYPE
 70
     6
  9
$SPLINESEGS
 70
     8
  9
$HANDSEED
  5
0826
  9
$SURFTAB1
 70
     6
  9
$SURFTAB2
 70
     6
  9
$SURFTYPE
 70
     6
  9
$SURFU
 70
     6
  9
$SURFV
 70
     6
  9
$UCSBASE
  2

  9
$UCSNAME
  2

  9
$UCSORG
 10
0.0
 20
0.0
 30
0.0
  9
$UCSXDIR
 10
1.0
 20
0.0
 30
0.0
  9
$UCSYDIR
 10
0.0
 20
1.0
 30
0.0
  9
$UCSORTHOREF
  2

  9
$UCSORTHOVIEW
 70
     0
  9
$UCSORGTOP
 10
0.0
 20
0.0
 30
0.0
  9
$UCSORGBOTTOM
 10
0.0
 20
0.0
 30
0.0
  9
$UCSORGLEFT
 10
0.0
 20
0.0
 30
0.0
  9
$UCSORGRIGHT
 10
0.0
 20
0.0
 30
0.0
  9
$UCSORGFRONT
 10
0.0
 20
0.0
 30
0.0
  9
$UCSORGBACK
 10
0.0
 20
0.0
 30
0.0
  9
$PUCSBASE
  2

  9
$PUCSNAME
  2

  9
$PUCSORG
 10
0.0
 20
0.0
 30
0.0
  9
$PUCSXDIR
 10
1.0
 20
0.0
 30
0.0
  9
$PUCSYDIR
 10
0.0
 20
1.0
 30
0.0
  9
$PUCSORTHOREF
  2

  9
$PUCSORTHOVIEW
 70
     0
  9
$PUCSORGTOP
 10
0.0
 20
0.0
 30
0.0
  9
$PUCSORGBOTTOM
 10
0.0
 20
0.0
 30
0.0
  9
$PUCSORGLEFT
 10
0.0
 20
0.0
 30
0.0
  9
$PUCSORGRIGHT
 10
0.0
 20
0.0
 30
0.0
  9
$PUCSORGFRONT
 10
0.0
 20
0.0
 30
0.0
  9
$PUCSORGBACK
 10
0.0
 20
0.0
 30
0.0
  9
$USERI1
 70
     0
  9
$USERI2
 70
     0
  9
$USERI3
 70
     0
  9
$USERI4
 70
     0
  9
$USERI5
 70
     0
  9
$USERR1
 40
0.0
  9
$USERR2
 40
0.0
  9
$USERR3
 40
0.0
  9
$USERR4
 40
0.0
  9
$USERR5
 40
0.0
  9
$WORLDVIEW
 70
     1
  9
$SHADEDGE
 70
     3
  9
$SHADEDIF
 70
    70
  9
$TILEMODE
 70
     1
  9
$MAXACTVP
 70
    64
  9
$PINSBASE
 10
0.0
 20
0.0
 30
0.0
  9
$PLIMCHECK
 70
     0
  9
$PEXTMIN
 10
1.000000E+20
 20
1.000000E+20
 30
1.000000E+20
  9
$PEXTMAX
 10
-1.000000E+20
 20
-1.000000E+20
 30
-1.000000E+20
  9
$PLIMMIN
 10
0.0
 20
0.0
  9
$PLIMMAX
 10
0.0
 20
0.0
  9
$UNITMODE
 70
     0
  9
$VISRETAIN
 70
     0
  9
$PLINEGEN
 70
     0
  9
$PSLTSCALE
 70
     1
  9
$TREEDEPTH
 70
  3020
  9
$CMLSTYLE
  2
STANDARD
  9
$CMLJUST
 70
     0
  9
$CMLSCALE
 40
20.0
  9
$PROXYGRAPHICS
 70
     1
  9
$MEASUREMENT
 70
     1
  9
$CELWEIGHT
370
    -1
  9
$ENDCAPS
280
     0
  9
$JOINSTYLE
280
     0
  9
$LWDISPLAY
290
     0
  9
$INSUNITS
 70
     4
  9
$HYPERLINKBASE
  1

  9
$STYLESHEET
  1

  9
$XEDIT
290
     1
  9
$CEPSNTYPE
380
     0
  9
$PSTYLEMODE
290
     1
  9
$FINGERPRINTGUID
  2
{4DF2CB98-1520-EC70-1D9A-03DC088B5E7E}
  9
$VERSIONGUID
  2
{B5864F31-097D-DA85-7445-A8EFFBA1FBFA}
  9
$EXTNAMES
290
     1
  9
$PSVPSCALE
 40
0.0
  0
ENDSEC
  0
SECTION
  2
CLASSES
  0
ENDSEC
  0
SECTION
  2
TABLES
  0
TABLE
  2
VPORT
  5
8
330
0
100
AcDbSymbolTable
 70
     3
  0
VPORT
  5
29
330
8
100
AcDbSymbolTableRecord
100
AcDbViewportTableRecord
  2
*Active
 70
     0
 10
0.0
 20
0.0
 11
1.0
 21
1.0
 12
420.0
 22
297.0
 13
0.0
 23
0.0
 14
10.0
 24
10.0
 15
0.0
 25
0.0
 16
0.0
 26
0.0
 36
1.0
 17
0.0
 27
0.0
 37
0.0
 40
594.0
 41
1.414141414
 42
50.0
 43
0.0
 44
0.0
 50
0.0
 51
0.0
 71
     0
 72
     0
 73
     0
 74
     0
 75
     0
 76
     0
 77
     0
 78
     0
281
     0
 65
     0
110
0.0
120
0.0
130
0.0
111
1.0
121
0.0
131
0.0
112
0.0
122
1.0
132
0.0
 79
     0
146
0.0
  0
ENDTAB
  0
TABLE
  2
LTYPE
  5
5
330
0
100
AcDbSymbolTable
 70
     5
  0
LTYPE
  5
14
330
5
100
AcDbSymbolTableRecord
100
AcDbLinetypeTableRecord
  2
ByBlock
 70
     0
  3

 72
    65
 73
     0
 40
0.0
  0
LTYPE
  5
15
330
5
100
AcDbSymbolTableRecord
100
AcDbLinetypeTableRecord
  2
ByLayer
 70
     0
  3

 72
    65
 73
     0
 40
0.0
  0
LTYPE
  5
16
330
5
100
AcDbSymbolTableRecord
100
AcDbLinetypeTableRecord
  2
Continuous
 70
     0
  3
Solid line
 72
    65
 73
     0
 40
0.0
  0
LTYPE
  5
AF
330
5
100
AcDbSymbolTableRecord
100
AcDbLinetypeTableRecord
  2
LTYPE1
 70
     0
  3
CENTER
 72
    65
 73
     4
 40
20.0
 49
14.0
 74
     0
 49
-2.0
 74
     0
 49
2.0
 74
     0
 49
-2.0
 74
     0
  0
LTYPE
  5
802
330
5
100
AcDbSymbolTableRecord
100
AcDbLinetypeTableRecord
  2
LTYPE2
 70
     0
  3
HIDDEN
 72
    65
 73
     2
 40
2.0
 49
1.2
 74
     0
 49
-0.8
 74
     0
  0
ENDTAB
  0
TABLE
  2
LAYER
  5
2
330
0
100
AcDbSymbolTable
 70
   128
  0
LAYER
  5
10
330
2
100
AcDbSymbolTableRecord
100
AcDbLayerTableRecord
  2
0
 70
     0
 62
     7
  6
Continuous
290
     1
370
    -3
390
F
  0
LAYER
  5
2A
330
2
100
AcDbSymbolTableRecord
100
AcDbLayerTableRecord
  2
2
 70
     0
 62
     7
  6
Continuous
290
     1
370
    -3
390
F
  0
LAYER
  5
2B
330
2
100
AcDbSymbolTableRecord
100
AcDbLayerTableRecord
  2
3
 70
     0
 62
     7
  6
Continuous
290
     1
370
    -3
390
F
  0
LAYER
  5
2C
330
2
100
AcDbSymbolTableRecord
100
AcDbLayerTableRecord
  2
4
 70
     0
 62
     7
  6
Continuous
290
     1
370
    -3
390
F
  0
LAYER
  5
2D
330
2
100
AcDbSymbolTableRecord
100
AcDbLayerTableRecord
  2
5
 70
     0
 62
     7
  6
Continuous
290
     1
370
    -3
390
F
  0
LAYER
  5
2E
330
2
100
AcDbSymbolTableRecord
100
AcDbLayerTableRecord
  2
6
 70
     0
 62
     7
  6
Continuous
290
     1
370
    -3
390
F
  0
LAYER
  5
2F
330
2
100
AcDbSymbolTableRecord
100
AcDbLayerTableRecord
  2
7
 70
     0
 62
     7
  6
Continuous
290
     1
370
    -3
390
F
  0
LAYER
  5
30
330
2
100
AcDbSymbolTableRecord
100
AcDbLayerTableRecord
  2
8
 70
     0
 62
     7
  6
Continuous
290
     1
370
    -3
390
F
  0
LAYER
  5
31
330
2
100
AcDbSymbolTableRecord
100
AcDbLayerTableRecord
  2
9
 70
     0
 62
     7
  6
Continuous
290
     1
370
    -3
390
F
  0
LAYER
  5
32
330
2
100
AcDbSymbolTableRecord
100
AcDbLayerTableRecord
  2
10
 70
     0
 62
     7
  6
Continuous
290
     1
370
    -3
390
F
  0
LAYER
  5
33
330
2
100
AcDbSymbolTableRecord
100
AcDbLayerTableRecord
  2
11
 70
     0
 62
     7
  6
Continuous
290
     1
370
    -3
390
F
  0
LAYER
  5
34
330
2
100
AcDbSymbolTableRecord
100
AcDbLayerTableRecord
  2
12
 70
     0
 62
     7
  6
Continuous
290
     1
370
    -3
390
F
  0
LAYER
  5
35
330
2
100
AcDbSymbolTableRecord
100
AcDbLayerTableRecord
  2
13
 70
     0
 62
     7
  6
Continuous
290
     1
370
    -3
390
F
  0
LAYER
  5
36
330
2
100
AcDbSymbolTableRecord
100
AcDbLayerTableRecord
  2
14
 70
     0
 62
     7
  6
Continuous
290
     1
370
    -3
390
F
  0
LAYER
  5
37
330
2
100
AcDbSymbolTableRecord
100
AcDbLayerTableRecord
  2
15
 70
     0
 62
     7
  6
Continuous
290
     1
370
    -3
390
F
  0
LAYER
  5
38
330
2
100
AcDbSymbolTableRecord
100
AcDbLayerTableRecord
  2
16
 70
     0
 62
     7
  6
Continuous
290
     1
370
    -3
390
F
  0
LAYER
  5
39
330
2
100
AcDbSymbolTableRecord
100
AcDbLayerTableRecord
  2
17
 70
     0
 62
     7
  6
Continuous
290
     1
370
    -3
390
F
  0
LAYER
  5
3A
330
2
100
AcDbSymbolTableRecord
100
AcDbLayerTableRecord
  2
18
 70
     0
 62
     7
  6
Continuous
290
     1
370
    -3
390
F
  0
LAYER
  5
3B
330
2
100
AcDbSymbolTableRecord
100
AcDbLayerTableRecord
  2
19
 70
     0
 62
     7
  6
Continuous
290
     1
370
    -3
390
F
  0
LAYER
  5
3C
330
2
100
AcDbSymbolTableRecord
100
AcDbLayerTableRecord
  2
20
 70
     0
 62
     7
  6
Continuous
290
     1
370
    -3
390
F
  0
LAYER
  5
3D
330
2
100
AcDbSymbolTableRecord
100
AcDbLayerTableRecord
  2
21
 70
     0
 62
     7
  6
Continuous
290
     1
370
    -3
390
F
  0
LAYER
  5
3E
330
2
100
AcDbSymbolTableRecord
100
AcDbLayerTableRecord
  2
22
 70
     0
 62
     7
  6
Continuous
290
     1
370
    -3
390
F
  0
LAYER
  5
3F
330
2
100
AcDbSymbolTableRecord
100
AcDbLayerTableRecord
  2
23
 70
     0
 62
     7
  6
Continuous
290
     1
370
    -3
390
F
  0
LAYER
  5
40
330
2
100
AcDbSymbolTableRecord
100
AcDbLayerTableRecord
  2
24
 70
     0
 62
     7
  6
Continuous
290
     1
370
    -3
390
F
  0
LAYER
  5
41
330
2
100
AcDbSymbolTableRecord
100
AcDbLayerTableRecord
  2
25
 70
     0
 62
     7
  6
Continuous
290
     1
370
    -3
390
F
  0
LAYER
  5
42
330
2
100
AcDbSymbolTableRecord
100
AcDbLayerTableRecord
  2
26
 70
     0
 62
     7
  6
Continuous
290
     1
370
    -3
390
F
  0
LAYER
  5
43
330
2
100
AcDbSymbolTableRecord
100
AcDbLayerTableRecord
  2
27
 70
     0
 62
     7
  6
Continuous
290
     1
370
    -3
390
F
  0
LAYER
  5
44
330
2
100
AcDbSymbolTableRecord
100
AcDbLayerTableRecord
  2
28
 70
     0
 62
     7
  6
Continuous
290
     1
370
    -3
390
F
  0
LAYER
  5
45
330
2
100
AcDbSymbolTableRecord
100
AcDbLayerTableRecord
  2
29
 70
     0
 62
     7
  6
Continuous
290
     1
370
    -3
390
F
  0
LAYER
  5
46
330
2
100
AcDbSymbolTableRecord
100
AcDbLayerTableRecord
  2
30
 70
     0
 62
     7
  6
Continuous
290
     1
370
    -3
390
F
  0
LAYER
  5
47
330
2
100
AcDbSymbolTableRecord
100
AcDbLayerTableRecord
  2
31
 70
     0
 62
     7
  6
Continuous
290
     1
370
    -3
390
F
  0
LAYER
  5
48
330
2
100
AcDbSymbolTableRecord
100
AcDbLayerTableRecord
  2
32
 70
     0
 62
     7
  6
Continuous
290
     1
370
    -3
390
F
  0
LAYER
  5
49
330
2
100
AcDbSymbolTableRecord
100
AcDbLayerTableRecord
  2
33
 70
     0
 62
     7
  6
Continuous
290
     1
370
    -3
390
F
  0
LAYER
  5
4A
330
2
100
AcDbSymbolTableRecord
100
AcDbLayerTableRecord
  2
34
 70
     0
 62
     7
  6
Continuous
290
     1
370
    -3
390
F
  0
LAYER
  5
4B
330
2
100
AcDbSymbolTableRecord
100
AcDbLayerTableRecord
  2
35
 70
     0
 62
     7
  6
Continuous
290
     1
370
    -3
390
F
  0
LAYER
  5
4C
330
2
100
AcDbSymbolTableRecord
100
AcDbLayerTableRecord
  2
36
 70
     0
 62
     7
  6
Continuous
290
     1
370
    -3
390
F
  0
LAYER
  5
4D
330
2
100
AcDbSymbolTableRecord
100
AcDbLayerTableRecord
  2
37
 70
     0
 62
     7
  6
Continuous
290
     1
370
    -3
390
F
  0
LAYER
  5
4E
330
2
100
AcDbSymbolTableRecord
100
AcDbLayerTableRecord
  2
38
 70
     0
 62
     7
  6
Continuous
290
     1
370
    -3
390
F
  0
LAYER
  5
4F
330
2
100
AcDbSymbolTableRecord
100
AcDbLayerTableRecord
  2
39
 70
     0
 62
     7
  6
Continuous
290
     1
370
    -3
390
F
  0
LAYER
  5
50
330
2
100
AcDbSymbolTableRecord
100
AcDbLayerTableRecord
  2
40
 70
     0
 62
     7
  6
Continuous
290
     1
370
    -3
390
F
  0
LAYER
  5
51
330
2
100
AcDbSymbolTableRecord
100
AcDbLayerTableRecord
  2
41
 70
     0
 62
     7
  6
Continuous
290
     1
370
    -3
390
F
  0
LAYER
  5
52
330
2
100
AcDbSymbolTableRecord
100
AcDbLayerTableRecord
  2
42
 70
     0
 62
     7
  6
Continuous
290
     1
370
    -3
390
F
  0
LAYER
  5
53
330
2
100
AcDbSymbolTableRecord
100
AcDbLayerTableRecord
  2
43
 70
     0
 62
     7
  6
Continuous
290
     1
370
    -3
390
F
  0
LAYER
  5
54
330
2
100
AcDbSymbolTableRecord
100
AcDbLayerTableRecord
  2
44
 70
     0
 62
     7
  6
Continuous
290
     1
370
    -3
390
F
  0
LAYER
  5
55
330
2
100
AcDbSymbolTableRecord
100
AcDbLayerTableRecord
  2
45
 70
     0
 62
     7
  6
Continuous
290
     1
370
    -3
390
F
  0
LAYER
  5
56
330
2
100
AcDbSymbolTableRecord
100
AcDbLayerTableRecord
  2
46
 70
     0
 62
     7
  6
Continuous
290
     1
370
    -3
390
F
  0
LAYER
  5
57
330
2
100
AcDbSymbolTableRecord
100
AcDbLayerTableRecord
  2
47
 70
     0
 62
     7
  6
Continuous
290
     1
370
    -3
390
F
  0
LAYER
  5
58
330
2
100
AcDbSymbolTableRecord
100
AcDbLayerTableRecord
  2
48
 70
     0
 62
     7
  6
Continuous
290
     1
370
    -3
390
F
  0
LAYER
  5
59
330
2
100
AcDbSymbolTableRecord
100
AcDbLayerTableRecord
  2
49
 70
     0
 62
     7
  6
Continuous
290
     1
370
    -3
390
F
  0
LAYER
  5
5A
330
2
100
AcDbSymbolTableRecord
100
AcDbLayerTableRecord
  2
50
 70
     0
 62
     7
  6
Continuous
290
     1
370
    -3
390
F
  0
LAYER
  5
5B
330
2
100
AcDbSymbolTableRecord
100
AcDbLayerTableRecord
  2
51
 70
     0
 62
     7
  6
Continuous
290
     1
370
    -3
390
F
  0
LAYER
  5
5C
330
2
100
AcDbSymbolTableRecord
100
AcDbLayerTableRecord
  2
52
 70
     0
 62
     7
  6
Continuous
290
     1
370
    -3
390
F
  0
LAYER
  5
5D
330
2
100
AcDbSymbolTableRecord
100
AcDbLayerTableRecord
  2
53
 70
     0
 62
     7
  6
Continuous
290
     1
370
    -3
390
F
  0
LAYER
  5
5E
330
2
100
AcDbSymbolTableRecord
100
AcDbLayerTableRecord
  2
54
 70
     0
 62
     7
  6
Continuous
290
     1
370
    -3
390
F
  0
LAYER
  5
5F
330
2
100
AcDbSymbolTableRecord
100
AcDbLayerTableRecord
  2
55
 70
     0
 62
     7
  6
Continuous
290
     1
370
    -3
390
F
  0
LAYER
  5
60
330
2
100
AcDbSymbolTableRecord
100
AcDbLayerTableRecord
  2
56
 70
     0
 62
     7
  6
Continuous
290
     1
370
    -3
390
F
  0
LAYER
  5
61
330
2
100
AcDbSymbolTableRecord
100
AcDbLayerTableRecord
  2
57
 70
     0
 62
     7
  6
Continuous
290
     1
370
    -3
390
F
  0
LAYER
  5
62
330
2
100
AcDbSymbolTableRecord
100
AcDbLayerTableRecord
  2
58
 70
     0
 62
     7
  6
Continuous
290
     1
370
    -3
390
F
  0
LAYER
  5
63
330
2
100
AcDbSymbolTableRecord
100
AcDbLayerTableRecord
  2
59
 70
     0
 62
     7
  6
Continuous
290
     1
370
    -3
390
F
  0
LAYER
  5
64
330
2
100
AcDbSymbolTableRecord
100
AcDbLayerTableRecord
  2
60
 70
     0
 62
     7
  6
Continuous
290
     1
370
    -3
390
F
  0
LAYER
  5
65
330
2
100
AcDbSymbolTableRecord
100
AcDbLayerTableRecord
  2
61
 70
     0
 62
     7
  6
Continuous
290
     1
370
    -3
390
F
  0
LAYER
  5
66
330
2
100
AcDbSymbolTableRecord
100
AcDbLayerTableRecord
  2
62
 70
     0
 62
     7
  6
Continuous
290
     1
370
    -3
390
F
  0
LAYER
  5
67
330
2
100
AcDbSymbolTableRecord
100
AcDbLayerTableRecord
  2
63
 70
     0
 62
     7
  6
Continuous
290
     1
370
    -3
390
F
  0
LAYER
  5
68
330
2
100
AcDbSymbolTableRecord
100
AcDbLayerTableRecord
  2
64
 70
     0
 62
     7
  6
Continuous
290
     1
370
    -3
390
F
  0
LAYER
  5
69
330
2
100
AcDbSymbolTableRecord
100
AcDbLayerTableRecord
  2
65
 70
     0
 62
     7
  6
Continuous
290
     1
370
    -3
390
F
  0
LAYER
  5
6A
330
2
100
AcDbSymbolTableRecord
100
AcDbLayerTableRecord
  2
66
 70
     0
 62
     7
  6
Continuous
290
     1
370
    -3
390
F
  0
LAYER
  5
6B
330
2
100
AcDbSymbolTableRecord
100
AcDbLayerTableRecord
  2
67
 70
     0
 62
     7
  6
Continuous
290
     1
370
    -3
390
F
  0
LAYER
  5
6C
330
2
100
AcDbSymbolTableRecord
100
AcDbLayerTableRecord
  2
68
 70
     0
 62
     7
  6
Continuous
290
     1
370
    -3
390
F
  0
LAYER
  5
6D
330
2
100
AcDbSymbolTableRecord
100
AcDbLayerTableRecord
  2
69
 70
     0
 62
     7
  6
Continuous
290
     1
370
    -3
390
F
  0
LAYER
  5
6E
330
2
100
AcDbSymbolTableRecord
100
AcDbLayerTableRecord
  2
70
 70
     0
 62
     7
  6
Continuous
290
     1
370
    -3
390
F
  0
LAYER
  5
6F
330
2
100
AcDbSymbolTableRecord
100
AcDbLayerTableRecord
  2
71
 70
     0
 62
     7
  6
Continuous
290
     1
370
    -3
390
F
  0
LAYER
  5
70
330
2
100
AcDbSymbolTableRecord
100
AcDbLayerTableRecord
  2
72
 70
     0
 62
     7
  6
Continuous
290
     1
370
    -3
390
F
  0
LAYER
  5
71
330
2
100
AcDbSymbolTableRecord
100
AcDbLayerTableRecord
  2
73
 70
     0
 62
     7
  6
Continuous
290
     1
370
    -3
390
F
  0
LAYER
  5
72
330
2
100
AcDbSymbolTableRecord
100
AcDbLayerTableRecord
  2
74
 70
     0
 62
     7
  6
Continuous
290
     1
370
    -3
390
F
  0
LAYER
  5
73
330
2
100
AcDbSymbolTableRecord
100
AcDbLayerTableRecord
  2
75
 70
     0
 62
     7
  6
Continuous
290
     1
370
    -3
390
F
  0
LAYER
  5
74
330
2
100
AcDbSymbolTableRecord
100
AcDbLayerTableRecord
  2
76
 70
     0
 62
     7
  6
Continuous
290
     1
370
    -3
390
F
  0
LAYER
  5
75
330
2
100
AcDbSymbolTableRecord
100
AcDbLayerTableRecord
  2
77
 70
     0
 62
     7
  6
Continuous
290
     1
370
    -3
390
F
  0
LAYER
  5
76
330
2
100
AcDbSymbolTableRecord
100
AcDbLayerTableRecord
  2
78
 70
     0
 62
     7
  6
Continuous
290
     1
370
    -3
390
F
  0
LAYER
  5
77
330
2
100
AcDbSymbolTableRecord
100
AcDbLayerTableRecord
  2
79
 70
     0
 62
     7
  6
Continuous
290
     1
370
    -3
390
F
  0
LAYER
  5
78
330
2
100
AcDbSymbolTableRecord
100
AcDbLayerTableRecord
  2
80
 70
     0
 62
     7
  6
Continuous
290
     1
370
    -3
390
F
  0
LAYER
  5
79
330
2
100
AcDbSymbolTableRecord
100
AcDbLayerTableRecord
  2
81
 70
     0
 62
     7
  6
Continuous
290
     1
370
    -3
390
F
  0
LAYER
  5
7A
330
2
100
AcDbSymbolTableRecord
100
AcDbLayerTableRecord
  2
82
 70
     0
 62
     7
  6
Continuous
290
     1
370
    -3
390
F
  0
LAYER
  5
7B
330
2
100
AcDbSymbolTableRecord
100
AcDbLayerTableRecord
  2
83
 70
     0
 62
     7
  6
Continuous
290
     1
370
    -3
390
F
  0
LAYER
  5
7C
330
2
100
AcDbSymbolTableRecord
100
AcDbLayerTableRecord
  2
84
 70
     0
 62
     7
  6
Continuous
290
     1
370
    -3
390
F
  0
LAYER
  5
7D
330
2
100
AcDbSymbolTableRecord
100
AcDbLayerTableRecord
  2
85
 70
     0
 62
     7
  6
Continuous
290
     1
370
    -3
390
F
  0
LAYER
  5
7E
330
2
100
AcDbSymbolTableRecord
100
AcDbLayerTableRecord
  2
86
 70
     0
 62
     7
  6
Continuous
290
     1
370
    -3
390
F
  0
LAYER
  5
7F
330
2
100
AcDbSymbolTableRecord
100
AcDbLayerTableRecord
  2
87
 70
     0
 62
     7
  6
Continuous
290
     1
370
    -3
390
F
  0
LAYER
  5
80
330
2
100
AcDbSymbolTableRecord
100
AcDbLayerTableRecord
  2
88
 70
     0
 62
     7
  6
Continuous
290
     1
370
    -3
390
F
  0
LAYER
  5
81
330
2
100
AcDbSymbolTableRecord
100
AcDbLayerTableRecord
  2
89
 70
     0
 62
     7
  6
Continuous
290
     1
370
    -3
390
F
  0
LAYER
  5
82
330
2
100
AcDbSymbolTableRecord
100
AcDbLayerTableRecord
  2
90
 70
     0
 62
     7
  6
Continuous
290
     1
370
    -3
390
F
  0
LAYER
  5
83
330
2
100
AcDbSymbolTableRecord
100
AcDbLayerTableRecord
  2
91
 70
     0
 62
     7
  6
Continuous
290
     1
370
    -3
390
F
  0
LAYER
  5
84
330
2
100
AcDbSymbolTableRecord
100
AcDbLayerTableRecord
  2
92
 70
     0
 62
     7
  6
Continuous
290
     1
370
    -3
390
F
  0
LAYER
  5
85
330
2
100
AcDbSymbolTableRecord
100
AcDbLayerTableRecord
  2
93
 70
     0
 62
     7
  6
Continuous
290
     1
370
    -3
390
F
  0
LAYER
  5
86
330
2
100
AcDbSymbolTableRecord
100
AcDbLayerTableRecord
  2
94
 70
     0
 62
     7
  6
Continuous
290
     1
370
    -3
390
F
  0
LAYER
  5
87
330
2
100
AcDbSymbolTableRecord
100
AcDbLayerTableRecord
  2
95
 70
     0
 62
     7
  6
Continuous
290
     1
370
    -3
390
F
  0
LAYER
  5
88
330
2
100
AcDbSymbolTableRecord
100
AcDbLayerTableRecord
  2
96
 70
     0
 62
     7
  6
Continuous
290
     1
370
    -3
390
F
  0
LAYER
  5
89
330
2
100
AcDbSymbolTableRecord
100
AcDbLayerTableRecord
  2
97
 70
     0
 62
     7
  6
Continuous
290
     1
370
    -3
390
F
  0
LAYER
  5
8A
330
2
100
AcDbSymbolTableRecord
100
AcDbLayerTableRecord
  2
98
 70
     0
 62
     7
  6
Continuous
290
     1
370
    -3
390
F
  0
LAYER
  5
8B
330
2
100
AcDbSymbolTableRecord
100
AcDbLayerTableRecord
  2
99
 70
     0
 62
     7
  6
Continuous
290
     1
370
    -3
390
F
  0
LAYER
  5
8C
330
2
100
AcDbSymbolTableRecord
100
AcDbLayerTableRecord
  2
100
 70
     0
 62
     7
  6
Continuous
290
     1
370
    -3
390
F
  0
LAYER
  5
8D
330
2
100
AcDbSymbolTableRecord
100
AcDbLayerTableRecord
  2
101
 70
     0
 62
     7
  6
Continuous
290
     1
370
    -3
390
F
  0
LAYER
  5
8E
330
2
100
AcDbSymbolTableRecord
100
AcDbLayerTableRecord
  2
102
 70
     0
 62
     7
  6
Continuous
290
     1
370
    -3
390
F
  0
LAYER
  5
8F
330
2
100
AcDbSymbolTableRecord
100
AcDbLayerTableRecord
  2
103
 70
     0
 62
     7
  6
Continuous
290
     1
370
    -3
390
F
  0
LAYER
  5
90
330
2
100
AcDbSymbolTableRecord
100
AcDbLayerTableRecord
  2
104
 70
     0
 62
     7
  6
Continuous
290
     1
370
    -3
390
F
  0
LAYER
  5
91
330
2
100
AcDbSymbolTableRecord
100
AcDbLayerTableRecord
  2
105
 70
     0
 62
     7
  6
Continuous
290
     1
370
    -3
390
F
  0
LAYER
  5
92
330
2
100
AcDbSymbolTableRecord
100
AcDbLayerTableRecord
  2
106
 70
     0
 62
     7
  6
Continuous
290
     1
370
    -3
390
F
  0
LAYER
  5
93
330
2
100
AcDbSymbolTableRecord
100
AcDbLayerTableRecord
  2
107
 70
     0
 62
     7
  6
Continuous
290
     1
370
    -3
390
F
  0
LAYER
  5
94
330
2
100
AcDbSymbolTableRecord
100
AcDbLayerTableRecord
  2
108
 70
     0
 62
     7
  6
Continuous
290
     1
370
    -3
390
F
  0
LAYER
  5
95
330
2
100
AcDbSymbolTableRecord
100
AcDbLayerTableRecord
  2
109
 70
     0
 62
     7
  6
Continuous
290
     1
370
    -3
390
F
  0
LAYER
  5
96
330
2
100
AcDbSymbolTableRecord
100
AcDbLayerTableRecord
  2
110
 70
     0
 62
     7
  6
Continuous
290
     1
370
    -3
390
F
  0
LAYER
  5
97
330
2
100
AcDbSymbolTableRecord
100
AcDbLayerTableRecord
  2
111
 70
     0
 62
     7
  6
Continuous
290
     1
370
    -3
390
F
  0
LAYER
  5
98
330
2
100
AcDbSymbolTableRecord
100
AcDbLayerTableRecord
  2
112
 70
     0
 62
     7
  6
Continuous
290
     1
370
    -3
390
F
  0
LAYER
  5
99
330
2
100
AcDbSymbolTableRecord
100
AcDbLayerTableRecord
  2
113
 70
     0
 62
     7
  6
Continuous
290
     1
370
    -3
390
F
  0
LAYER
  5
9A
330
2
100
AcDbSymbolTableRecord
100
AcDbLayerTableRecord
  2
114
 70
     0
 62
     7
  6
Continuous
290
     1
370
    -3
390
F
  0
LAYER
  5
9B
330
2
100
AcDbSymbolTableRecord
100
AcDbLayerTableRecord
  2
115
 70
     0
 62
     7
  6
Continuous
290
     1
370
    -3
390
F
  0
LAYER
  5
9C
330
2
100
AcDbSymbolTableRecord
100
AcDbLayerTableRecord
  2
116
 70
     0
 62
     7
  6
Continuous
290
     1
370
    -3
390
F
  0
LAYER
  5
9D
330
2
100
AcDbSymbolTableRecord
100
AcDbLayerTableRecord
  2
117
 70
     0
 62
     7
  6
Continuous
290
     1
370
    -3
390
F
  0
LAYER
  5
9E
330
2
100
AcDbSymbolTableRecord
100
AcDbLayerTableRecord
  2
118
 70
     0
 62
     7
  6
Continuous
290
     1
370
    -3
390
F
  0
LAYER
  5
9F
330
2
100
AcDbSymbolTableRecord
100
AcDbLayerTableRecord
  2
119
 70
     0
 62
     7
  6
Continuous
290
     1
370
    -3
390
F
  0
LAYER
  5
A0
330
2
100
AcDbSymbolTableRecord
100
AcDbLayerTableRecord
  2
120
 70
     0
 62
     7
  6
Continuous
290
     1
370
    -3
390
F
  0
LAYER
  5
A1
330
2
100
AcDbSymbolTableRecord
100
AcDbLayerTableRecord
  2
121
 70
     0
 62
     7
  6
Continuous
290
     1
370
    -3
390
F
  0
LAYER
  5
A2
330
2
100
AcDbSymbolTableRecord
100
AcDbLayerTableRecord
  2
122
 70
     0
 62
     7
  6
Continuous
290
     1
370
    -3
390
F
  0
LAYER
  5
A3
330
2
100
AcDbSymbolTableRecord
100
AcDbLayerTableRecord
  2
123
 70
     0
 62
     7
  6
Continuous
290
     1
370
    -3
390
F
  0
LAYER
  5
A4
330
2
100
AcDbSymbolTableRecord
100
AcDbLayerTableRecord
  2
124
 70
     0
 62
     7
  6
Continuous
290
     1
370
    -3
390
F
  0
LAYER
  5
A5
330
2
100
AcDbSymbolTableRecord
100
AcDbLayerTableRecord
  2
125
 70
     0
 62
     7
  6
Continuous
290
     1
370
    -3
390
F
  0
LAYER
  5
A6
330
2
100
AcDbSymbolTableRecord
100
AcDbLayerTableRecord
  2
126
 70
     0
 62
     7
  6
Continuous
290
     1
370
    -3
390
F
  0
LAYER
  5
A7
330
2
100
AcDbSymbolTableRecord
100
AcDbLayerTableRecord
  2
127
 70
     0
 62
     7
  6
Continuous
290
     1
370
    -3
390
F
  0
LAYER
  5
A8
330
2
100
AcDbSymbolTableRecord
100
AcDbLayerTableRecord
  2
128
 70
     0
 62
     7
  6
Continuous
290
     1
370
    -3
390
F
  0
ENDTAB
  0
TABLE
  2
STYLE
  5
3
330
0
100
AcDbSymbolTable
 70
    18
  0
STYLE
  5
11
330
3
100
AcDbSymbolTableRecord
100
AcDbTextStyleTableRecord
  2
Standard
 70
     0
 40
0.0
 41
1.0
 50
0.0
 71
     0
 42
2.5
  3
txt
  4
extfont.shx
  0
STYLE
  5
6C2
330
3
100
AcDbSymbolTableRecord
100
AcDbTextStyleTableRecord
  2
KANJI0
 70
     0
 40
6.0
 41
1.0
 50
0.0
 71
     0
 42
6.0
  3
txt.shx
  4
extfont.shx
  0
STYLE
  5
6C5
330
3
100
AcDbSymbolTableRecord
100
AcDbTextStyleTableRecord
  2
KANJI1
 70
     0
 40
3.0
 41
1.0
 50
0.0
 71
     0
 42
3.0
  3
txt.shx
  4
extfont.shx
  0
STYLE
  5
6C8
330
3
100
AcDbSymbolTableRecord
100
AcDbTextStyleTableRecord
  2
KANJI2
 70
     0
 40
3.0
 41
0.5
 50
0.0
 71
     0
 42
3.0
  3
txt.shx
  4
extfont.shx
  0
STYLE
  5
6D1
330
3
100
AcDbSymbolTableRecord
100
AcDbTextStyleTableRecord
  2
KANJI3
 70
     0
 40
6.0
 41
1.0
 50
0.0
 71
     0
 42
6.0
  3
txt.shx
  4
extfont.shx
  0
STYLE
  5
6D7
330
3
100
AcDbSymbolTableRecord
100
AcDbTextStyleTableRecord
  2
KANJI4
 70
     0
 40
3.0
 41
1.0
 50
0.0
 71
     0
 42
3.0
  3
txt.shx
  4
extfont.shx
  0
STYLE
  5
6DD
330
3
100
AcDbSymbolTableRecord
100
AcDbTextStyleTableRecord
  2
KANJI5
 70
     0
 40
3.0
 41
0.5
 50
0.0
 71
     0
 42
3.0
  3
txt.shx
  4
extfont.shx
  0
STYLE
  5
6F5
330
3
100
AcDbSymbolTableRecord
100
AcDbTextStyleTableRecord
  2
KANJI6
 70
     0
 40
2.0
 41
0.5
 50
0.0
 71
     0
 42
2.0
  3
txt.shx
  4
extfont.shx
  0
STYLE
  5
6F8
330
3
100
AcDbSymbolTableRecord
100
AcDbTextStyleTableRecord
  2
KANJI7
 70
     0
 40
1.6
 41
0.4375
 50
0.0
 71
     0
 42
1.6
  3
txt.shx
  4
extfont.shx
  0
STYLE
  5
6FA
330
3
100
AcDbSymbolTableRecord
100
AcDbTextStyleTableRecord
  2
KANJI8
 70
     0
 40
2.0
 41
0.5
 50
0.0
 71
     0
 42
2.0
  3
txt.shx
  4
extfont.shx
  0
STYLE
  5
793
330
3
100
AcDbSymbolTableRecord
100
AcDbTextStyleTableRecord
  2
KANJI9
 70
     0
 40
5.0
 41
1.0
 50
0.0
 71
     0
 42
5.0
  3
txt.shx
  4
extfont.shx
  0
STYLE
  5
796
330
3
100
AcDbSymbolTableRecord
100
AcDbTextStyleTableRecord
  2
KANJI10
 70
     0
 40
4.5
 41
1.0
 50
0.0
 71
     0
 42
4.5
  3
txt.shx
  4
extfont.shx
  0
STYLE
  5
7A7
330
3
100
AcDbSymbolTableRecord
100
AcDbTextStyleTableRecord
  2
KANJI11
 70
     0
 40
4.0
 41
0.5
 50
0.0
 71
     0
 42
4.0
  3
txt.shx
  4
extfont.shx
  0
STYLE
  5
7AD
330
3
100
AcDbSymbolTableRecord
100
AcDbTextStyleTableRecord
  2
KANJI12
 70
     0
 40
6.0
 41
0.9
 50
0.0
 71
     0
 42
6.0
  3
txt.shx
  4
extfont.shx
  0
STYLE
  5
7B6
330
3
100
AcDbSymbolTableRecord
100
AcDbTextStyleTableRecord
  2
KANJI13
 70
     0
 40
6.0
 41
0.933333333
 50
15.0
 71
     0
 42
6.0
  3
txt.shx
  4
extfont.shx
  0
STYLE
  5
801
330
3
100
AcDbSymbolTableRecord
100
AcDbTextStyleTableRecord
  2
KANJI14
 70
     0
 40
6.0
 41
0.45
 50
0.0
 71
     0
 42
6.0
  3
txt.shx
  4
extfont.shx
  0
STYLE
  5
81B
330
3
100
AcDbSymbolTableRecord
100
AcDbTextStyleTableRecord
  2
KANJI15
 70
     0
 40
6.0
 41
0.9
 50
15.0
 71
     0
 42
6.0
  3
txt.shx
  4
extfont.shx
  0
STYLE
  5
825
330
3
100
AcDbSymbolTableRecord
100
AcDbTextStyleTableRecord
  2
KANJI16
 70
     0
 40
5.0
 41
1.0
 50
0.0
 71
     0
 42
5.0
  3
txt.shx
  4
extfont.shx
  0
ENDTAB
  0
TABLE
  2
VIEW
  5
6
330
0
100
AcDbSymbolTable
 70
     0
  0
ENDTAB
  0
TABLE
  2
UCS
  5
7
330
0
100
AcDbSymbolTable
 70
     0
  0
ENDTAB
  0
TABLE
  2
APPID
  5
9
330
0
100
AcDbSymbolTable
 70
     1
  0
APPID
  5
12
330
9
100
AcDbSymbolTableRecord
100
AcDbRegAppTableRecord
  2
ACAD
 70
     0
  0
ENDTAB
  0
TABLE
  2
DIMSTYLE
  5
A
330
0
100
AcDbSymbolTable
 70
     1
100
AcDbDimStyleTable
 71
     0
  0
DIMSTYLE
105
27
330
A
100
AcDbSymbolTableRecord
100
AcDbDimStyleTableRecord
  2
ISO-25
 70
     0
  3

  4

 40
1.0
 41
2.5
 42
0.625
 43
3.75
 44
1.25
 45
0.0
 46
0.0
 47
0.0
 48
0.0
 71
     0
 72
     0
 73
     0
 74
     0
 75
     0
 76
     0
 77
     1
 78
     8
 79
     0
140
2.5
141
2.5
142
0.0
143
0.039370079
144
1.0
145
0.0
146
1.0
147
0.625
148
0.0
170
     0
171
     3
172
     1
173
     0
174
     0
175
     0
176
     0
177
     0
178
     0
179
     0
270
     2
271
     2
272
     2
273
     2
274
     3
275
     0
276
     0
277
     2
278
    46
279
     0
280
     0
281
     0
282
     0
283
     1
284
     8
285
     0
286
     0
288
     0
289
     0
340
11
341
0
342
0
343
0
344
0
371
    -2
372
    -2
  0
ENDTAB
  0
TABLE
  2
BLOCK_RECORD
  5
1
330
0
100
AcDbSymbolTable
 70
     3
  0
BLOCK_RECORD
  5
1F
330
1
100
AcDbSymbolTableRecord
100
AcDbBlockTableRecord
  2
*Model_Space
340
22
  0
BLOCK_RECORD
  5
1B
330
1
100
AcDbSymbolTableRecord
100
AcDbBlockTableRecord
  2
*Paper_Space
340
1E
  0
BLOCK_RECORD
  5
23
330
1
100
AcDbSymbolTableRecord
100
AcDbBlockTableRecord
  2
*Paper_Space0
340
26
  0
ENDTAB
  0
ENDSEC
  0
SECTION
  2
BLOCKS
  0
BLOCK
  5
1C
330
1B
100
AcDbEntity
 67
     1
  8
0
100
AcDbBlockBegin
  2
*Paper_Space
 70
     0
 10
0.0
 20
0.0
 30
0.0
  3
*Paper_Space
  1

  0
ENDBLK
  5
1D
330
1B
100
AcDbEntity
  8
0
100
AcDbBlockEnd
  0
BLOCK
  5
20
330
1F
100
AcDbEntity
  8
0
100
AcDbBlockBegin
  2
*Model_Space
 70
     0
 10
0.0
 20
0.0
 30
0.0
  3
*Model_Space
  1

  0
ENDBLK
  5
21
330
1F
100
AcDbEntity
  8
0
100
AcDbBlockEnd
  0
BLOCK
  5
24
330
23
100
AcDbEntity
 67
     1
  8
0
100
AcDbBlockBegin
  2
*Paper_Space0
 70
     0
 10
0.0
 20
0.0
 30
0.0
  3
*Paper_Space0
  1

  0
ENDBLK
  5
25
330
23
100
AcDbEntity
  8
0
100
AcDbBlockEnd
  0
ENDSEC
  0
SECTION
  2
ENTITIES
  0
LINE
  5
A9
330
1F
100
AcDbEntity
  8
0
  6
Continuous
 62
     2
100
AcDbLine
 10
276.463690167
 20
270.0
 30
0.0
 11
526.463690167
 21
270.0
 31
0.0
  0
LWPOLYLINE
  5
AB
330
1F
100
AcDbEntity
  8
0
  6
Continuous
 62
     2
100
AcDbPolyline
 90
     3
 70
   128
 43
0.0
 10
526.463690167
 20
470.0
 10
276.463690167
 20
470.0
 10
276.463690167
 20
270.0
  0
LINE
  5
AC
330
1F
100
AcDbEntity
  8
0
  6
Continuous
 62
     2
100
AcDbLine
 10
526.463690167
 20
469.0
 30
0.0
 11
276.463690167
 21
469.0
 31
0.0
  0
CIRCLE
  5
AD
330
1F
100
AcDbEntity
  8
0
  6
Continuous
 62
     1
100
AcDbCircle
 10
313.963690167
 20
457.5
 30
0.0
 40
1.6
  0
ARC
  5
AE
330
1F
100
AcDbEntity
  8
0
  6
Continuous
 62
     1
100
AcDbCircle
 10
313.963690167
 20
457.5
 30
0.0
 40
2.0
100
AcDbArc
 50
60.0
 51
30.0
  0
LINE
  5
B0
330
1F
100
AcDbEntity
  8
0
  6
LTYPE1
 62
     1
100
AcDbLine
 10
313.983690167
 20
460.53
 30
0.0
 11
313.983690167
 21
454.48
 31
0.0
  0
LINE
  5
B1
330
1F
100
AcDbEntity
  8
0
  6
LTYPE1
 62
     1
100
AcDbLine
 10
310.473690167
 20
457.57
 30
0.0
 11
317.703690167
 21
457.57
 31
0.0
  0
CIRCLE
  5
B2
330
1F
100
AcDbEntity
  8
0
  6
Continuous
 62
     1
100
AcDbCircle
 10
401.463690167
 20
457.5
 30
0.0
 40
1.6
  0
ARC
  5
B3
330
1F
100
AcDbEntity
  8
0
  6
Continuous
 62
     1
100
AcDbCircle
 10
401.463690167
 20
457.5
 30
0.0
 40
2.0
100
AcDbArc
 50
60.0
 51
30.0
  0
LINE
  5
B4
330
1F
100
AcDbEntity
  8
0
  6
LTYPE1
 62
     1
100
AcDbLine
 10
401.483690167
 20
460.53
 30
0.0
 11
401.483690167
 21
454.48
 31
0.0
  0
LINE
  5
B5
330
1F
100
AcDbEntity
  8
0
  6
LTYPE1
 62
     1
100
AcDbLine
 10
397.973690167
 20
457.57
 30
0.0
 11
405.203690167
 21
457.57
 31
0.0
  0
CIRCLE
  5
B6
330
1F
100
AcDbEntity
  8
0
  6
Continuous
 62
     1
100
AcDbCircle
 10
488.963690167
 20
457.5
 30
0.0
 40
1.6
  0
ARC
  5
B7
330
1F
100
AcDbEntity
  8
0
  6
Continuous
 62
     1
100
AcDbCircle
 10
488.963690167
 20
457.5
 30
0.0
 40
2.0
100
AcDbArc
 50
60.0
 51
30.0
  0
LINE
  5
B8
330
1F
100
AcDbEntity
  8
0
  6
LTYPE1
 62
     1
100
AcDbLine
 10
488.983690167
 20
460.53
 30
0.0
 11
488.983690167
 21
454.48
 31
0.0
  0
LINE
  5
B9
330
1F
100
AcDbEntity
  8
0
  6
LTYPE1
 62
     1
100
AcDbLine
 10
485.473690167
 20
457.57
 30
0.0
 11
492.703690167
 21
457.57
 31
0.0
  0
CIRCLE
  5
BA
330
1F
100
AcDbEntity
  8
0
  6
Continuous
 62
     1
100
AcDbCircle
 10
488.963690167
 20
282.5
 30
0.0
 40
1.6
  0
ARC
  5
BB
330
1F
100
AcDbEntity
  8
0
  6
Continuous
 62
     1
100
AcDbCircle
 10
488.963690167
 20
282.5
 30
0.0
 40
2.0
100
AcDbArc
 50
60.0
 51
30.0
  0
LINE
  5
BC
330
1F
100
AcDbEntity
  8
0
  6
LTYPE1
 62
     1
100
AcDbLine
 10
488.983690167
 20
285.53
 30
0.0
 11
488.983690167
 21
279.48
 31
0.0
  0
LINE
  5
BD
330
1F
100
AcDbEntity
  8
0
  6
LTYPE1
 62
     1
100
AcDbLine
 10
485.473690167
 20
282.57
 30
0.0
 11
492.703690167
 21
282.57
 31
0.0
  0
CIRCLE
  5
BE
330
1F
100
AcDbEntity
  8
0
  6
Continuous
 62
     1
100
AcDbCircle
 10
401.463690167
 20
282.5
 30
0.0
 40
1.6
  0
ARC
  5
BF
330
1F
100
AcDbEntity
  8
0
  6
Continuous
 62
     1
100
AcDbCircle
 10
401.463690167
 20
282.5
 30
0.0
 40
2.0
100
AcDbArc
 50
60.0
 51
30.0
  0
LINE
  5
C0
330
1F
100
AcDbEntity
  8
0
  6
LTYPE1
 62
     1
100
AcDbLine
 10
401.483690167
 20
285.53
 30
0.0
 11
401.483690167
 21
279.48
 31
0.0
  0
LINE
  5
C1
330
1F
100
AcDbEntity
  8
0
  6
LTYPE1
 62
     1
100
AcDbLine
 10
397.973690167
 20
282.57
 30
0.0
 11
405.203690167
 21
282.57
 31
0.0
  0
CIRCLE
  5
C2
330
1F
100
AcDbEntity
  8
0
  6
Continuous
 62
     1
100
AcDbCircle
 10
313.963690167
 20
282.5
 30
0.0
 40
1.6
  0
ARC
  5
C3
330
1F
100
AcDbEntity
  8
0
  6
Continuous
 62
     1
100
AcDbCircle
 10
313.963690167
 20
282.5
 30
0.0
 40
2.0
100
AcDbArc
 50
60.0
 51
30.0
  0
LINE
  5
C4
330
1F
100
AcDbEntity
  8
0
  6
LTYPE1
 62
     1
100
AcDbLine
 10
313.983690167
 20
285.53
 30
0.0
 11
313.983690167
 21
279.48
 31
0.0
  0
LINE
  5
C5
330
1F
100
AcDbEntity
  8
0
  6
LTYPE1
 62
     1
100
AcDbLine
 10
310.473690167
 20
282.57
 30
0.0
 11
317.703690167
 21
282.57
 31
0.0
  0
ARC
  5
C6
330
1F
100
AcDbEntity
  8
0
  6
Continuous
 62
     1
100
AcDbCircle
 10
537.963690167
 20
381.5
 30
0.0
 40
2.0
100
AcDbArc
 50
0.0
 51
90.0
  0
ARC
  5
C7
330
1F
100
AcDbEntity
  8
0
  6
Continuous
 62
     1
100
AcDbCircle
 10
537.963690167
 20
377.5
 30
0.0
 40
2.0
100
AcDbArc
 50
270.0
 51
0.0
  0
LINE
  5
C8
330
1F
100
AcDbEntity
  8
0
  6
Continuous
 62
     1
100
AcDbLine
 10
539.963690167
 20
381.5
 30
0.0
 11
539.963690167
 21
377.5
 31
0.0
  0
LINE
  5
C9
330
1F
100
AcDbEntity
  8
0
  6
Continuous
 62
     1
100
AcDbLine
 10
537.963690167
 20
383.5
 30
0.0
 11
537.963690167
 21
375.5
 31
0.0
  0
LINE
  5
CA
330
1F
100
AcDbEntity
  8
0
  6
Continuous
 62
     1
100
AcDbLine
 10
536.963690167
 20
383.7
 30
0.0
 11
536.963690167
 21
375.3
 31
0.0
  0
LINE
  5
CB
330
1F
100
AcDbEntity
  8
0
  6
Continuous
 62
     1
100
AcDbLine
 10
537.963690167
 20
375.5
 30
0.0
 11
536.963690167
 21
375.5
 31
0.0
  0
LINE
  5
CC
330
1F
100
AcDbEntity
  8
0
  6
Continuous
 62
     1
100
AcDbLine
 10
537.963690167
 20
383.5
 30
0.0
 11
536.963690167
 21
383.5
 31
0.0
  0
LINE
  5
CD
330
1F
100
AcDbEntity
  8
0
  6
Continuous
 62
     1
100
AcDbLine
 10
536.963690167
 20
383.7
 30
0.0
 11
535.963690167
 21
383.7
 31
0.0
  0
LINE
  5
CE
330
1F
100
AcDbEntity
  8
0
  6
Continuous
 62
     1
100
AcDbLine
 10
535.963690167
 20
375.3
 30
0.0
 11
535.963690167
 21
383.7
 31
0.0
  0
LINE
  5
CF
330
1F
100
AcDbEntity
  8
0
  6
Continuous
 62
     1
100
AcDbLine
 10
535.963690167
 20
375.3
 30
0.0
 11
536.963690167
 21
375.3
 31
0.0
  0
LINE
  5
D0
330
1F
100
AcDbEntity
  8
0
  6
Continuous
 62
     1
100
AcDbLine
 10
533.463690167
 20
373.7
 30
0.0
 11
543.963690167
 21
373.7
 31
0.0
  0
LINE
  5
D1
330
1F
100
AcDbEntity
  8
0
  6
Continuous
 62
     1
100
AcDbLine
 10
535.963690167
 20
373.0
 30
0.0
 11
526.463690167
 21
373.0
 31
0.0
  0
LINE
  5
D2
330
1F
100
AcDbEntity
  8
0
  6
Continuous
 62
     1
100
AcDbLine
 10
533.463690167
 20
373.7
 30
0.0
 11
533.463690167
 21
373.0
 31
0.0
  0
LINE
  5
D3
330
1F
100
AcDbEntity
  8
0
  6
Continuous
 62
     1
100
AcDbLine
 10
535.963690167
 20
373.0
 30
0.0
 11
535.963690167
 21
373.7
 31
0.0
  0
LINE
  5
D4
330
1F
100
AcDbEntity
  8
0
  6
Continuous
 62
     1
100
AcDbLine
 10
533.463690167
 20
375.3
 30
0.0
 11
543.963690167
 21
375.3
 31
0.0
  0
LINE
  5
D5
330
1F
100
AcDbEntity
  8
0
  6
Continuous
 62
     1
100
AcDbLine
 10
543.963690167
 20
375.3
 30
0.0
 11
543.963690167
 21
373.7
 31
0.0
  0
LINE
  5
D6
330
1F
100
AcDbEntity
  8
0
  6
Continuous
 62
     1
100
AcDbLine
 10
533.463690167
 20
375.3
 30
0.0
 11
533.463690167
 21
383.7
 31
0.0
  0
LINE
  5
D7
330
1F
100
AcDbEntity
  8
0
  6
Continuous
 62
     1
100
AcDbLine
 10
543.963690167
 20
383.7
 30
0.0
 11
533.463690167
 21
383.7
 31
0.0
  0
LINE
  5
D8
330
1F
100
AcDbEntity
  8
0
  6
Continuous
 62
     1
100
AcDbLine
 10
543.963690167
 20
383.7
 30
0.0
 11
543.963690167
 21
385.3
 31
0.0
  0
LINE
  5
D9
330
1F
100
AcDbEntity
  8
0
  6
Continuous
 62
     1
100
AcDbLine
 10
533.463690167
 20
385.3
 30
0.0
 11
543.963690167
 21
385.3
 31
0.0
  0
ARC
  5
DA
330
1F
100
AcDbEntity
  8
0
  6
Continuous
 62
     1
100
AcDbCircle
 10
537.963690167
 20
391.5
 30
0.0
 40
2.0
100
AcDbArc
 50
0.0
 51
90.0
  0
ARC
  5
DB
330
1F
100
AcDbEntity
  8
0
  6
Continuous
 62
     1
100
AcDbCircle
 10
537.963690167
 20
387.5
 30
0.0
 40
2.0
100
AcDbArc
 50
270.0
 51
0.0
  0
LINE
  5
DC
330
1F
100
AcDbEntity
  8
0
  6
Continuous
 62
     1
100
AcDbLine
 10
539.963690167
 20
391.5
 30
0.0
 11
539.963690167
 21
387.5
 31
0.0
  0
LINE
  5
DD
330
1F
100
AcDbEntity
  8
0
  6
Continuous
 62
     1
100
AcDbLine
 10
537.963690167
 20
393.5
 30
0.0
 11
537.963690167
 21
385.5
 31
0.0
  0
LINE
  5
DE
330
1F
100
AcDbEntity
  8
0
  6
Continuous
 62
     1
100
AcDbLine
 10
536.963690167
 20
393.7
 30
0.0
 11
536.963690167
 21
385.3
 31
0.0
  0
LINE
  5
DF
330
1F
100
AcDbEntity
  8
0
  6
Continuous
 62
     1
100
AcDbLine
 10
537.963690167
 20
385.5
 30
0.0
 11
536.963690167
 21
385.5
 31
0.0
  0
LINE
  5
E0
330
1F
100
AcDbEntity
  8
0
  6
Continuous
 62
     1
100
AcDbLine
 10
537.963690167
 20
393.5
 30
0.0
 11
536.963690167
 21
393.5
 31
0.0
  0
LINE
  5
E1
330
1F
100
AcDbEntity
  8
0
  6
Continuous
 62
     1
100
AcDbLine
 10
536.963690167
 20
393.7
 30
0.0
 11
535.963690167
 21
393.7
 31
0.0
  0
LINE
  5
E2
330
1F
100
AcDbEntity
  8
0
  6
Continuous
 62
     1
100
AcDbLine
 10
535.963690167
 20
385.3
 30
0.0
 11
535.963690167
 21
393.7
 31
0.0
  0
LINE
  5
E3
330
1F
100
AcDbEntity
  8
0
  6
Continuous
 62
     1
100
AcDbLine
 10
533.463690167
 20
385.3
 30
0.0
 11
533.463690167
 21
393.7
 31
0.0
  0
LINE
  5
E4
330
1F
100
AcDbEntity
  8
0
  6
Continuous
 62
     1
100
AcDbLine
 10
543.963690167
 20
393.7
 30
0.0
 11
533.463690167
 21
393.7
 31
0.0
  0
LINE
  5
E5
330
1F
100
AcDbEntity
  8
0
  6
Continuous
 62
     1
100
AcDbLine
 10
543.963690167
 20
393.7
 30
0.0
 11
543.963690167
 21
395.3
 31
0.0
  0
LINE
  5
E6
330
1F
100
AcDbEntity
  8
0
  6
Continuous
 62
     1
100
AcDbLine
 10
533.463690167
 20
395.3
 30
0.0
 11
543.963690167
 21
395.3
 31
0.0
  0
ARC
  5
E7
330
1F
100
AcDbEntity
  8
0
  6
Continuous
 62
     1
100
AcDbCircle
 10
537.963690167
 20
401.5
 30
0.0
 40
2.0
100
AcDbArc
 50
0.0
 51
90.0
  0
ARC
  5
E8
330
1F
100
AcDbEntity
  8
0
  6
Continuous
 62
     1
100
AcDbCircle
 10
537.963690167
 20
397.5
 30
0.0
 40
2.0
100
AcDbArc
 50
270.0
 51
0.0
  0
LINE
  5
E9
330
1F
100
AcDbEntity
  8
0
  6
Continuous
 62
     1
100
AcDbLine
 10
539.963690167
 20
401.5
 30
0.0
 11
539.963690167
 21
397.5
 31
0.0
  0
LINE
  5
EA
330
1F
100
AcDbEntity
  8
0
  6
Continuous
 62
     1
100
AcDbLine
 10
537.963690167
 20
403.5
 30
0.0
 11
537.963690167
 21
395.5
 31
0.0
  0
LINE
  5
EB
330
1F
100
AcDbEntity
  8
0
  6
Continuous
 62
     1
100
AcDbLine
 10
536.963690167
 20
403.7
 30
0.0
 11
536.963690167
 21
395.3
 31
0.0
  0
LINE
  5
EC
330
1F
100
AcDbEntity
  8
0
  6
Continuous
 62
     1
100
AcDbLine
 10
537.963690167
 20
395.5
 30
0.0
 11
536.963690167
 21
395.5
 31
0.0
  0
LINE
  5
ED
330
1F
100
AcDbEntity
  8
0
  6
Continuous
 62
     1
100
AcDbLine
 10
537.963690167
 20
403.5
 30
0.0
 11
536.963690167
 21
403.5
 31
0.0
  0
LINE
  5
EE
330
1F
100
AcDbEntity
  8
0
  6
Continuous
 62
     1
100
AcDbLine
 10
536.963690167
 20
403.7
 30
0.0
 11
535.963690167
 21
403.7
 31
0.0
  0
LINE
  5
EF
330
1F
100
AcDbEntity
  8
0
  6
Continuous
 62
     1
100
AcDbLine
 10
535.963690167
 20
395.3
 30
0.0
 11
535.963690167
 21
403.7
 31
0.0
  0
LINE
  5
F0
330
1F
100
AcDbEntity
  8
0
  6
Continuous
 62
     1
100
AcDbLine
 10
533.463690167
 20
395.3
 30
0.0
 11
533.463690167
 21
403.7
 31
0.0
  0
LINE
  5
F1
330
1F
100
AcDbEntity
  8
0
  6
Continuous
 62
     1
100
AcDbLine
 10
543.963690167
 20
403.7
 30
0.0
 11
533.463690167
 21
403.7
 31
0.0
  0
LINE
  5
F2
330
1F
100
AcDbEntity
  8
0
  6
Continuous
 62
     1
100
AcDbLine
 10
543.963690167
 20
403.7
 30
0.0
 11
543.963690167
 21
405.3
 31
0.0
  0
LINE
  5
F3
330
1F
100
AcDbEntity
  8
0
  6
Continuous
 62
     1
100
AcDbLine
 10
533.463690167
 20
405.3
 30
0.0
 11
543.963690167
 21
405.3
 31
0.0
  0
ARC
  5
F4
330
1F
100
AcDbEntity
  8
0
  6
Continuous
 62
     1
100
AcDbCircle
 10
537.963690167
 20
411.5
 30
0.0
 40
2.0
100
AcDbArc
 50
0.0
 51
90.0
  0
ARC
  5
F5
330
1F
100
AcDbEntity
  8
0
  6
Continuous
 62
     1
100
AcDbCircle
 10
537.963690167
 20
407.5
 30
0.0
 40
2.0
100
AcDbArc
 50
270.0
 51
0.0
  0
LINE
  5
F6
330
1F
100
AcDbEntity
  8
0
  6
Continuous
 62
     1
100
AcDbLine
 10
539.963690167
 20
411.5
 30
0.0
 11
539.963690167
 21
407.5
 31
0.0
  0
LINE
  5
F7
330
1F
100
AcDbEntity
  8
0
  6
Continuous
 62
     1
100
AcDbLine
 10
537.963690167
 20
413.5
 30
0.0
 11
537.963690167
 21
405.5
 31
0.0
  0
LINE
  5
F8
330
1F
100
AcDbEntity
  8
0
  6
Continuous
 62
     1
100
AcDbLine
 10
536.963690167
 20
413.7
 30
0.0
 11
536.963690167
 21
405.3
 31
0.0
  0
LINE
  5
F9
330
1F
100
AcDbEntity
  8
0
  6
Continuous
 62
     1
100
AcDbLine
 10
537.963690167
 20
405.5
 30
0.0
 11
536.963690167
 21
405.5
 31
0.0
  0
LINE
  5
FA
330
1F
100
AcDbEntity
  8
0
  6
Continuous
 62
     1
100
AcDbLine
 10
537.963690167
 20
413.5
 30
0.0
 11
536.963690167
 21
413.5
 31
0.0
  0
LINE
  5
FB
330
1F
100
AcDbEntity
  8
0
  6
Continuous
 62
     1
100
AcDbLine
 10
536.963690167
 20
413.7
 30
0.0
 11
535.963690167
 21
413.7
 31
0.0
  0
LINE
  5
FC
330
1F
100
AcDbEntity
  8
0
  6
Continuous
 62
     1
100
AcDbLine
 10
535.963690167
 20
405.3
 30
0.0
 11
535.963690167
 21
413.7
 31
0.0
  0
LINE
  5
FD
330
1F
100
AcDbEntity
  8
0
  6
Continuous
 62
     1
100
AcDbLine
 10
533.463690167
 20
405.3
 30
0.0
 11
533.463690167
 21
413.7
 31
0.0
  0
LINE
  5
FE
330
1F
100
AcDbEntity
  8
0
  6
Continuous
 62
     1
100
AcDbLine
 10
543.963690167
 20
413.7
 30
0.0
 11
533.463690167
 21
413.7
 31
0.0
  0
LINE
  5
FF
330
1F
100
AcDbEntity
  8
0
  6
Continuous
 62
     1
100
AcDbLine
 10
543.963690167
 20
413.7
 30
0.0
 11
543.963690167
 21
415.3
 31
0.0
  0
LINE
  5
100
330
1F
100
AcDbEntity
  8
0
  6
Continuous
 62
     1
100
AcDbLine
 10
533.463690167
 20
415.3
 30
0.0
 11
543.963690167
 21
415.3
 31
0.0
  0
ARC
  5
101
330
1F
100
AcDbEntity
  8
0
  6
Continuous
 62
     1
100
AcDbCircle
 10
537.963690167
 20
421.5
 30
0.0
 40
2.0
100
AcDbArc
 50
0.0
 51
90.0
  0
ARC
  5
102
330
1F
100
AcDbEntity
  8
0
  6
Continuous
 62
     1
100
AcDbCircle
 10
537.963690167
 20
417.5
 30
0.0
 40
2.0
100
AcDbArc
 50
270.0
 51
0.0
  0
LINE
  5
103
330
1F
100
AcDbEntity
  8
0
  6
Continuous
 62
     1
100
AcDbLine
 10
539.963690167
 20
421.5
 30
0.0
 11
539.963690167
 21
417.5
 31
0.0
  0
LINE
  5
104
330
1F
100
AcDbEntity
  8
0
  6
Continuous
 62
     1
100
AcDbLine
 10
537.963690167
 20
423.5
 30
0.0
 11
537.963690167
 21
415.5
 31
0.0
  0
LINE
  5
105
330
1F
100
AcDbEntity
  8
0
  6
Continuous
 62
     1
100
AcDbLine
 10
536.963690167
 20
423.7
 30
0.0
 11
536.963690167
 21
415.3
 31
0.0
  0
LINE
  5
106
330
1F
100
AcDbEntity
  8
0
  6
Continuous
 62
     1
100
AcDbLine
 10
537.963690167
 20
415.5
 30
0.0
 11
536.963690167
 21
415.5
 31
0.0
  0
LINE
  5
107
330
1F
100
AcDbEntity
  8
0
  6
Continuous
 62
     1
100
AcDbLine
 10
537.963690167
 20
423.5
 30
0.0
 11
536.963690167
 21
423.5
 31
0.0
  0
LINE
  5
108
330
1F
100
AcDbEntity
  8
0
  6
Continuous
 62
     1
100
AcDbLine
 10
536.963690167
 20
423.7
 30
0.0
 11
535.963690167
 21
423.7
 31
0.0
  0
LINE
  5
109
330
1F
100
AcDbEntity
  8
0
  6
Continuous
 62
     1
100
AcDbLine
 10
535.963690167
 20
415.3
 30
0.0
 11
535.963690167
 21
423.7
 31
0.0
  0
LINE
  5
10A
330
1F
100
AcDbEntity
  8
0
  6
Continuous
 62
     1
100
AcDbLine
 10
533.463690167
 20
415.3
 30
0.0
 11
533.463690167
 21
423.7
 31
0.0
  0
LINE
  5
10B
330
1F
100
AcDbEntity
  8
0
  6
Continuous
 62
     1
100
AcDbLine
 10
543.963690167
 20
423.7
 30
0.0
 11
533.463690167
 21
423.7
 31
0.0
  0
LINE
  5
10C
330
1F
100
AcDbEntity
  8
0
  6
Continuous
 62
     1
100
AcDbLine
 10
543.963690167
 20
423.7
 30
0.0
 11
543.963690167
 21
425.3
 31
0.0
  0
LINE
  5
10D
330
1F
100
AcDbEntity
  8
0
  6
Continuous
 62
     1
100
AcDbLine
 10
533.463690167
 20
425.3
 30
0.0
 11
543.963690167
 21
425.3
 31
0.0
  0
ARC
  5
10E
330
1F
100
AcDbEntity
  8
0
  6
Continuous
 62
     1
100
AcDbCircle
 10
537.963690167
 20
431.5
 30
0.0
 40
2.0
100
AcDbArc
 50
0.0
 51
90.0
  0
ARC
  5
10F
330
1F
100
AcDbEntity
  8
0
  6
Continuous
 62
     1
100
AcDbCircle
 10
537.963690167
 20
427.5
 30
0.0
 40
2.0
100
AcDbArc
 50
270.0
 51
0.0
  0
LINE
  5
110
330
1F
100
AcDbEntity
  8
0
  6
Continuous
 62
     1
100
AcDbLine
 10
539.963690167
 20
431.5
 30
0.0
 11
539.963690167
 21
427.5
 31
0.0
  0
LINE
  5
111
330
1F
100
AcDbEntity
  8
0
  6
Continuous
 62
     1
100
AcDbLine
 10
537.963690167
 20
433.5
 30
0.0
 11
537.963690167
 21
425.5
 31
0.0
  0
LINE
  5
112
330
1F
100
AcDbEntity
  8
0
  6
Continuous
 62
     1
100
AcDbLine
 10
536.963690167
 20
433.7
 30
0.0
 11
536.963690167
 21
425.3
 31
0.0
  0
LINE
  5
113
330
1F
100
AcDbEntity
  8
0
  6
Continuous
 62
     1
100
AcDbLine
 10
537.963690167
 20
425.5
 30
0.0
 11
536.963690167
 21
425.5
 31
0.0
  0
LINE
  5
114
330
1F
100
AcDbEntity
  8
0
  6
Continuous
 62
     1
100
AcDbLine
 10
537.963690167
 20
433.5
 30
0.0
 11
536.963690167
 21
433.5
 31
0.0
  0
LINE
  5
115
330
1F
100
AcDbEntity
  8
0
  6
Continuous
 62
     1
100
AcDbLine
 10
536.963690167
 20
433.7
 30
0.0
 11
535.963690167
 21
433.7
 31
0.0
  0
LINE
  5
116
330
1F
100
AcDbEntity
  8
0
  6
Continuous
 62
     1
100
AcDbLine
 10
535.963690167
 20
425.3
 30
0.0
 11
535.963690167
 21
433.7
 31
0.0
  0
LINE
  5
117
330
1F
100
AcDbEntity
  8
0
  6
Continuous
 62
     1
100
AcDbLine
 10
533.463690167
 20
425.3
 30
0.0
 11
533.463690167
 21
433.7
 31
0.0
  0
LINE
  5
118
330
1F
100
AcDbEntity
  8
0
  6
Continuous
 62
     1
100
AcDbLine
 10
543.963690167
 20
433.7
 30
0.0
 11
533.463690167
 21
433.7
 31
0.0
  0
LINE
  5
119
330
1F
100
AcDbEntity
  8
0
  6
Continuous
 62
     1
100
AcDbLine
 10
543.963690167
 20
433.7
 30
0.0
 11
543.963690167
 21
435.3
 31
0.0
  0
LINE
  5
11A
330
1F
100
AcDbEntity
  8
0
  6
Continuous
 62
     1
100
AcDbLine
 10
533.463690167
 20
435.3
 30
0.0
 11
543.963690167
 21
435.3
 31
0.0
  0
ARC
  5
11B
330
1F
100
AcDbEntity
  8
0
  6
Continuous
 62
     1
100
AcDbCircle
 10
537.963690167
 20
441.5
 30
0.0
 40
2.0
100
AcDbArc
 50
0.0
 51
90.0
  0
ARC
  5
11C
330
1F
100
AcDbEntity
  8
0
  6
Continuous
 62
     1
100
AcDbCircle
 10
537.963690167
 20
437.5
 30
0.0
 40
2.0
100
AcDbArc
 50
270.0
 51
0.0
  0
LINE
  5
11D
330
1F
100
AcDbEntity
  8
0
  6
Continuous
 62
     1
100
AcDbLine
 10
539.963690167
 20
441.5
 30
0.0
 11
539.963690167
 21
437.5
 31
0.0
  0
LINE
  5
11E
330
1F
100
AcDbEntity
  8
0
  6
Continuous
 62
     1
100
AcDbLine
 10
537.963690167
 20
443.5
 30
0.0
 11
537.963690167
 21
435.5
 31
0.0
  0
LINE
  5
11F
330
1F
100
AcDbEntity
  8
0
  6
Continuous
 62
     1
100
AcDbLine
 10
536.963690167
 20
443.7
 30
0.0
 11
536.963690167
 21
435.3
 31
0.0
  0
LINE
  5
120
330
1F
100
AcDbEntity
  8
0
  6
Continuous
 62
     1
100
AcDbLine
 10
537.963690167
 20
435.5
 30
0.0
 11
536.963690167
 21
435.5
 31
0.0
  0
LINE
  5
121
330
1F
100
AcDbEntity
  8
0
  6
Continuous
 62
     1
100
AcDbLine
 10
537.963690167
 20
443.5
 30
0.0
 11
536.963690167
 21
443.5
 31
0.0
  0
LINE
  5
122
330
1F
100
AcDbEntity
  8
0
  6
Continuous
 62
     1
100
AcDbLine
 10
536.963690167
 20
443.7
 30
0.0
 11
535.963690167
 21
443.7
 31
0.0
  0
LINE
  5
123
330
1F
100
AcDbEntity
  8
0
  6
Continuous
 62
     1
100
AcDbLine
 10
535.963690167
 20
435.3
 30
0.0
 11
535.963690167
 21
443.7
 31
0.0
  0
LINE
  5
124
330
1F
100
AcDbEntity
  8
0
  6
Continuous
 62
     1
100
AcDbLine
 10
533.463690167
 20
435.3
 30
0.0
 11
533.463690167
 21
443.7
 31
0.0
  0
LINE
  5
125
330
1F
100
AcDbEntity
  8
0
  6
Continuous
 62
     1
100
AcDbLine
 10
543.963690167
 20
443.7
 30
0.0
 11
533.463690167
 21
443.7
 31
0.0
  0
LINE
  5
126
330
1F
100
AcDbEntity
  8
0
  6
Continuous
 62
     1
100
AcDbLine
 10
543.963690167
 20
443.7
 30
0.0
 11
543.963690167
 21
445.3
 31
0.0
  0
LINE
  5
127
330
1F
100
AcDbEntity
  8
0
  6
Continuous
 62
     1
100
AcDbLine
 10
533.463690167
 20
445.3
 30
0.0
 11
543.963690167
 21
445.3
 31
0.0
  0
LINE
  5
128
330
1F
100
AcDbEntity
  8
0
  6
Continuous
 62
     1
100
AcDbLine
 10
535.963690167
 20
446.0
 30
0.0
 11
526.463690167
 21
446.0
 31
0.0
  0
LINE
  5
129
330
1F
100
AcDbEntity
  8
0
  6
Continuous
 62
     1
100
AcDbLine
 10
533.463690167
 20
445.3
 30
0.0
 11
533.463690167
 21
446.0
 31
0.0
  0
LINE
  5
12A
330
1F
100
AcDbEntity
  8
0
  6
Continuous
 62
     1
100
AcDbLine
 10
535.963690167
 20
446.0
 30
0.0
 11
535.963690167
 21
445.3
 31
0.0
  0
LINE
  5
12B
330
1F
100
AcDbEntity
  8
0
  6
Continuous
 62
     1
100
AcDbLine
 10
526.463690167
 20
446.0
 30
0.0
 11
526.463690167
 21
373.0
 31
0.0
  0
LINE
  5
12C
330
1F
100
AcDbEntity
  8
0
  6
Continuous
 62
     1
100
AcDbLine
 10
541.963690167
 20
373.7
 30
0.0
 11
541.963690167
 21
375.3
 31
0.0
  0
LINE
  5
12D
330
1F
100
AcDbEntity
  8
0
  6
Continuous
 62
     1
100
AcDbLine
 10
542.963690167
 20
373.7
 30
0.0
 11
542.963690167
 21
375.3
 31
0.0
  0
LINE
  5
12E
330
1F
100
AcDbEntity
  8
0
  6
Continuous
 62
     1
100
AcDbLine
 10
541.963690167
 20
383.7
 30
0.0
 11
541.963690167
 21
385.3
 31
0.0
  0
LINE
  5
12F
330
1F
100
AcDbEntity
  8
0
  6
Continuous
 62
     1
100
AcDbLine
 10
542.963690167
 20
383.7
 30
0.0
 11
542.963690167
 21
385.3
 31
0.0
  0
LINE
  5
130
330
1F
100
AcDbEntity
  8
0
  6
Continuous
 62
     1
100
AcDbLine
 10
541.963690167
 20
393.7
 30
0.0
 11
541.963690167
 21
395.3
 31
0.0
  0
LINE
  5
131
330
1F
100
AcDbEntity
  8
0
  6
Continuous
 62
     1
100
AcDbLine
 10
542.963690167
 20
393.7
 30
0.0
 11
542.963690167
 21
395.3
 31
0.0
  0
LINE
  5
132
330
1F
100
AcDbEntity
  8
0
  6
Continuous
 62
     1
100
AcDbLine
 10
541.963690167
 20
403.7
 30
0.0
 11
541.963690167
 21
405.3
 31
0.0
  0
LINE
  5
133
330
1F
100
AcDbEntity
  8
0
  6
Continuous
 62
     1
100
AcDbLine
 10
542.963690167
 20
403.7
 30
0.0
 11
542.963690167
 21
405.3
 31
0.0
  0
LINE
  5
134
330
1F
100
AcDbEntity
  8
0
  6
Continuous
 62
     1
100
AcDbLine
 10
541.963690167
 20
413.7
 30
0.0
 11
541.963690167
 21
415.3
 31
0.0
  0
LINE
  5
135
330
1F
100
AcDbEntity
  8
0
  6
Continuous
 62
     1
100
AcDbLine
 10
542.963690167
 20
413.7
 30
0.0
 11
542.963690167
 21
415.3
 31
0.0
  0
LINE
  5
136
330
1F
100
AcDbEntity
  8
0
  6
Continuous
 62
     1
100
AcDbLine
 10
541.963690167
 20
423.7
 30
0.0
 11
541.963690167
 21
425.3
 31
0.0
  0
LINE
  5
137
330
1F
100
AcDbEntity
  8
0
  6
Continuous
 62
     1
100
AcDbLine
 10
542.963690167
 20
423.7
 30
0.0
 11
542.963690167
 21
425.3
 31
0.0
  0
LINE
  5
138
330
1F
100
AcDbEntity
  8
0
  6
Continuous
 62
     1
100
AcDbLine
 10
541.963690167
 20
433.7
 30
0.0
 11
541.963690167
 21
435.3
 31
0.0
  0
LINE
  5
139
330
1F
100
AcDbEntity
  8
0
  6
Continuous
 62
     1
100
AcDbLine
 10
542.963690167
 20
433.7
 30
0.0
 11
542.963690167
 21
435.3
 31
0.0
  0
LINE
  5
13A
330
1F
100
AcDbEntity
  8
0
  6
Continuous
 62
     1
100
AcDbLine
 10
541.963690167
 20
443.7
 30
0.0
 11
541.963690167
 21
445.3
 31
0.0
  0
LINE
  5
13B
330
1F
100
AcDbEntity
  8
0
  6
Continuous
 62
     1
100
AcDbLine
 10
542.963690167
 20
443.7
 30
0.0
 11
542.963690167
 21
445.3
 31
0.0
  0
LINE
  5
13C
330
1F
100
AcDbEntity
  8
0
  6
Continuous
 62
     1
100
AcDbLine
 10
527.963690167
 20
347.06
 30
0.0
 11
527.963690167
 21
346.78
 31
0.0
  0
LINE
  5
13D
330
1F
100
AcDbEntity
  8
0
  6
Continuous
 62
     1
100
AcDbLine
 10
527.963690167
 20
346.78
 30
0.0
 11
526.463690167
 21
346.78
 31
0.0
  0
LINE
  5
13E
330
1F
100
AcDbEntity
  8
0
  6
Continuous
 62
     1
100
AcDbLine
 10
526.473690167
 20
347.06
 30
0.0
 11
533.963690167
 21
347.06
 31
0.0
  0
LINE
  5
13F
330
1F
100
AcDbEntity
  8
0
  6
Continuous
 62
     1
100
AcDbLine
 10
533.963690167
 20
347.06
 30
0.0
 11
533.963690167
 21
348.48
 31
0.0
  0
LINE
  5
140
330
1F
100
AcDbEntity
  8
0
  6
Continuous
 62
     1
100
AcDbLine
 10
533.963690167
 20
348.48
 30
0.0
 11
527.963690167
 21
348.48
 31
0.0
  0
LINE
  5
141
330
1F
100
AcDbEntity
  8
0
  6
Continuous
 62
     1
100
AcDbLine
 10
527.963690167
 20
348.48
 30
0.0
 11
526.463690167
 21
348.48
 31
0.0
  0
LINE
  5
142
330
1F
100
AcDbEntity
  8
0
  6
Continuous
 62
     1
100
AcDbLine
 10
526.463690167
 20
348.48
 30
0.0
 11
526.463690167
 21
354.68
 31
0.0
  0
LINE
  5
143
330
1F
100
AcDbEntity
  8
0
  6
Continuous
 62
     1
100
AcDbLine
 10
526.463690167
 20
354.68
 30
0.0
 11
527.963690167
 21
354.68
 31
0.0
  0
LINE
  5
144
330
1F
100
AcDbEntity
  8
0
  6
Continuous
 62
     1
100
AcDbLine
 10
527.963690167
 20
354.68
 30
0.0
 11
527.963690167
 21
348.48
 31
0.0
  0
LINE
  5
145
330
1F
100
AcDbEntity
  8
0
  6
Continuous
 62
     1
100
AcDbLine
 10
527.963690167
 20
354.68
 30
0.0
 11
533.963690167
 21
354.68
 31
0.0
  0
LINE
  5
146
330
1F
100
AcDbEntity
  8
0
  6
Continuous
 62
     1
100
AcDbLine
 10
533.963690167
 20
354.68
 30
0.0
 11
533.963690167
 21
356.1
 31
0.0
  0
LINE
  5
147
330
1F
100
AcDbEntity
  8
0
  6
Continuous
 62
     1
100
AcDbLine
 10
533.963690167
 20
356.1
 30
0.0
 11
526.463690167
 21
356.1
 31
0.0
  0
LINE
  5
148
330
1F
100
AcDbEntity
  8
0
  6
Continuous
 62
     1
100
AcDbLine
 10
526.463690167
 20
362.3
 30
0.0
 11
526.463690167
 21
356.1
 31
0.0
  0
LINE
  5
149
330
1F
100
AcDbEntity
  8
0
  6
Continuous
 62
     1
100
AcDbLine
 10
526.463690167
 20
362.3
 30
0.0
 11
533.963690167
 21
362.3
 31
0.0
  0
LINE
  5
14A
330
1F
100
AcDbEntity
  8
0
  6
Continuous
 62
     1
100
AcDbLine
 10
533.963690167
 20
362.3
 30
0.0
 11
533.963690167
 21
363.72
 31
0.0
  0
LINE
  5
14B
330
1F
100
AcDbEntity
  8
0
  6
Continuous
 62
     1
100
AcDbLine
 10
533.963690167
 20
363.72
 30
0.0
 11
526.463690167
 21
363.72
 31
0.0
  0
LINE
  5
14C
330
1F
100
AcDbEntity
  8
0
  6
Continuous
 62
     1
100
AcDbLine
 10
526.463690167
 20
363.72
 30
0.0
 11
526.463690167
 21
364.0
 31
0.0
  0
LINE
  5
14D
330
1F
100
AcDbEntity
  8
0
  6
Continuous
 62
     1
100
AcDbLine
 10
526.463690167
 20
364.0
 30
0.0
 11
527.963690167
 21
364.0
 31
0.0
  0
LINE
  5
14E
330
1F
100
AcDbEntity
  8
0
  6
Continuous
 62
     1
100
AcDbLine
 10
527.963690167
 20
364.0
 30
0.0
 11
527.963690167
 21
363.72
 31
0.0
  0
LINE
  5
14F
330
1F
100
AcDbEntity
  8
0
  6
Continuous
 62
     1
100
AcDbLine
 10
527.963690167
 20
356.1
 30
0.0
 11
527.963690167
 21
362.3
 31
0.0
  0
ARC
  5
150
330
1F
100
AcDbEntity
  8
0
  6
Continuous
 62
     1
100
AcDbCircle
 10
529.463690167
 20
359.7
 30
0.0
 40
2.5
100
AcDbArc
 50
0.0
 51
90.0
  0
ARC
  5
151
330
1F
100
AcDbEntity
  8
0
  6
Continuous
 62
     1
100
AcDbCircle
 10
529.463690167
 20
358.7
 30
0.0
 40
2.5
100
AcDbArc
 50
270.0
 51
0.0
  0
LINE
  5
152
330
1F
100
AcDbEntity
  8
0
  6
Continuous
 62
     1
100
AcDbLine
 10
531.963690167
 20
358.7
 30
0.0
 11
531.963690167
 21
359.7
 31
0.0
  0
LINE
  5
153
330
1F
100
AcDbEntity
  8
0
  6
Continuous
 62
     1
100
AcDbLine
 10
529.463690167
 20
362.2
 30
0.0
 11
529.463690167
 21
356.2
 31
0.0
  0
LINE
  5
154
330
1F
100
AcDbEntity
  8
0
  6
Continuous
 62
     1
100
AcDbLine
 10
528.963690167
 20
356.2
 30
0.0
 11
529.463690167
 21
356.2
 31
0.0
  0
LINE
  5
155
330
1F
100
AcDbEntity
  8
0
  6
Continuous
 62
     1
100
AcDbLine
 10
528.963690167
 20
356.2
 30
0.0
 11
528.963690167
 21
362.3
 31
0.0
  0
LINE
  5
156
330
1F
100
AcDbEntity
  8
0
  6
Continuous
 62
     1
100
AcDbLine
 10
528.963690167
 20
362.2
 30
0.0
 11
529.463690167
 21
362.2
 31
0.0
  0
LINE
  5
157
330
1F
100
AcDbEntity
  8
0
  6
Continuous
 62
     1
100
AcDbLine
 10
528.963690167
 20
356.2
 30
0.0
 11
528.963690167
 21
356.1
 31
0.0
  0
LINE
  5
158
330
1F
100
AcDbEntity
  8
0
  6
Continuous
 62
     1
100
AcDbLine
 10
529.463690167
 20
359.2
 30
0.0
 11
528.963690167
 21
359.7
 31
0.0
  0
LINE
  5
159
330
1F
100
AcDbEntity
  8
0
  6
Continuous
 62
     1
100
AcDbLine
 10
528.963690167
 20
359.2
 30
0.0
 11
529.463690167
 21
358.7
 31
0.0
  0
ARC
  5
15A
330
1F
100
AcDbEntity
  8
0
  6
Continuous
 62
     1
100
AcDbCircle
 10
529.463690167
 20
351.08
 30
0.0
 40
2.5
100
AcDbArc
 50
270.0
 51
0.0
  0
ARC
  5
15B
330
1F
100
AcDbEntity
  8
0
  6
Continuous
 62
     1
100
AcDbCircle
 10
529.463690167
 20
352.08
 30
0.0
 40
2.5
100
AcDbArc
 50
0.0
 51
90.0
  0
LINE
  5
15C
330
1F
100
AcDbEntity
  8
0
  6
Continuous
 62
     1
100
AcDbLine
 10
531.963690167
 20
352.08
 30
0.0
 11
531.963690167
 21
351.08
 31
0.0
  0
LINE
  5
15D
330
1F
100
AcDbEntity
  8
0
  6
Continuous
 62
     1
100
AcDbLine
 10
529.463690167
 20
348.58
 30
0.0
 11
529.463690167
 21
354.58
 31
0.0
  0
LINE
  5
15E
330
1F
100
AcDbEntity
  8
0
  6
Continuous
 62
     1
100
AcDbLine
 10
528.963690167
 20
354.58
 30
0.0
 11
529.463690167
 21
354.58
 31
0.0
  0
LINE
  5
15F
330
1F
100
AcDbEntity
  8
0
  6
Continuous
 62
     1
100
AcDbLine
 10
528.963690167
 20
354.58
 30
0.0
 11
528.963690167
 21
348.48
 31
0.0
  0
LINE
  5
160
330
1F
100
AcDbEntity
  8
0
  6
Continuous
 62
     1
100
AcDbLine
 10
528.963690167
 20
348.58
 30
0.0
 11
529.463690167
 21
348.58
 31
0.0
  0
LINE
  5
161
330
1F
100
AcDbEntity
  8
0
  6
Continuous
 62
     1
100
AcDbLine
 10
528.963690167
 20
354.58
 30
0.0
 11
528.963690167
 21
354.68
 31
0.0
  0
LINE
  5
162
330
1F
100
AcDbEntity
  8
0
  6
Continuous
 62
     1
100
AcDbLine
 10
529.463690167
 20
351.58
 30
0.0
 11
528.963690167
 21
352.08
 31
0.0
  0
LINE
  5
163
330
1F
100
AcDbEntity
  8
0
  6
Continuous
 62
     1
100
AcDbLine
 10
528.963690167
 20
351.58
 30
0.0
 11
529.463690167
 21
351.08
 31
0.0
  0
LINE
  5
164
330
1F
100
AcDbEntity
  8
0
  6
Continuous
 62
     1
100
AcDbLine
 10
527.963690167
 20
347.06
 30
0.0
 11
526.463690167
 21
347.06
 31
0.0
  0
LINE
  5
165
330
1F
100
AcDbEntity
  8
0
  6
Continuous
 62
     1
100
AcDbLine
 10
526.463690167
 20
347.06
 30
0.0
 11
526.463690167
 21
346.78
 31
0.0
  0
LWPOLYLINE
  5
167
330
1F
100
AcDbEntity
  8
0
  6
Continuous
 62
     1
100
AcDbPolyline
 90
     4
 70
   129
 43
0.0
 10
526.463690167
 20
292.0
 10
550.463690167
 20
292.0
 10
550.463690167
 20
307.0
 10
526.463690167
 20
307.0
  0
LWPOLYLINE
  5
169
330
1F
100
AcDbEntity
  8
0
  6
Continuous
 62
     1
100
AcDbPolyline
 90
     4
 70
   129
 43
0.0
 10
526.463690167
 20
322.0
 10
550.463690167
 20
322.0
 10
550.463690167
 20
337.0
 10
526.463690167
 20
337.0
  0
LINE
  5
16A
330
1F
100
AcDbEntity
  8
0
  6
Continuous
 62
     1
100
AcDbLine
 10
526.463690167
 20
363.72
 30
0.0
 11
526.463690167
 21
346.78
 31
0.0
  0
LINE
  5
16B
330
1F
100
AcDbEntity
  8
0
  6
Continuous
 62
     2
100
AcDbLine
 10
526.463690167
 20
270.0
 30
0.0
 11
526.463690167
 21
469.0
 31
0.0
  0
LINE
  5
16C
330
1F
100
AcDbEntity
  8
0
  6
Continuous
 62
     2
100
AcDbLine
 10
526.463690167
 20
469.0
 30
0.0
 11
526.463690167
 21
470.0
 31
0.0
  0
CIRCLE
  5
16D
330
1F
100
AcDbEntity
  8
0
  6
Continuous
 62
     1
100
AcDbCircle
 10
541.963690167
 20
329.5
 30
0.0
 40
2.0
  0
ARC
  5
16E
330
1F
100
AcDbEntity
  8
0
  6
Continuous
 62
     1
100
AcDbCircle
 10
541.963690167
 20
329.5
 30
0.0
 40
2.5
100
AcDbArc
 50
60.0
 51
30.0
  0
LINE
  5
16F
330
1F
100
AcDbEntity
  8
0
  6
LTYPE1
 62
     1
100
AcDbLine
 10
541.923690167
 20
333.17
 30
0.0
 11
541.923690167
 21
325.97
 31
0.0
  0
LINE
  5
170
330
1F
100
AcDbEntity
  8
0
  6
LTYPE1
 62
     1
100
AcDbLine
 10
538.593690167
 20
329.48
 30
0.0
 11
545.313690167
 21
329.48
 31
0.0
  0
CIRCLE
  5
171
330
1F
100
AcDbEntity
  8
0
  6
Continuous
 62
     1
100
AcDbCircle
 10
541.963690167
 20
299.5
 30
0.0
 40
2.0
  0
ARC
  5
172
330
1F
100
AcDbEntity
  8
0
  6
Continuous
 62
     1
100
AcDbCircle
 10
541.963690167
 20
299.5
 30
0.0
 40
2.5
100
AcDbArc
 50
60.0
 51
30.0
  0
LINE
  5
173
330
1F
100
AcDbEntity
  8
0
  6
LTYPE1
 62
     1
100
AcDbLine
 10
541.923690167
 20
303.17
 30
0.0
 11
541.923690167
 21
295.97
 31
0.0
  0
LINE
  5
174
330
1F
100
AcDbEntity
  8
0
  6
LTYPE1
 62
     1
100
AcDbLine
 10
538.593690167
 20
299.48
 30
0.0
 11
545.313690167
 21
299.48
 31
0.0
  0
CIRCLE
  5
175
330
1F
100
AcDbEntity
  8
0
  6
Continuous
 62
     1
100
AcDbCircle
 10
488.963690167
 20
219.14
 30
0.0
 40
1.6
  0
ARC
  5
176
330
1F
100
AcDbEntity
  8
0
  6
Continuous
 62
     1
100
AcDbCircle
 10
488.963690167
 20
219.14
 30
0.0
 40
2.0
100
AcDbArc
 50
60.0
 51
30.0
  0
LINE
  5
177
330
1F
100
AcDbEntity
  8
0
  6
LTYPE1
 62
     1
100
AcDbLine
 10
488.983690167
 20
222.17
 30
0.0
 11
488.983690167
 21
216.12
 31
0.0
  0
LINE
  5
178
330
1F
100
AcDbEntity
  8
0
  6
LTYPE1
 62
     1
100
AcDbLine
 10
485.473690167
 20
219.21
 30
0.0
 11
492.703690167
 21
219.21
 31
0.0
  0
CIRCLE
  5
179
330
1F
100
AcDbEntity
  8
0
  6
Continuous
 62
     1
100
AcDbCircle
 10
401.463690167
 20
219.14
 30
0.0
 40
1.6
  0
ARC
  5
17A
330
1F
100
AcDbEntity
  8
0
  6
Continuous
 62
     1
100
AcDbCircle
 10
401.463690167
 20
219.14
 30
0.0
 40
2.0
100
AcDbArc
 50
60.0
 51
30.0
  0
LINE
  5
17B
330
1F
100
AcDbEntity
  8
0
  6
LTYPE1
 62
     1
100
AcDbLine
 10
401.483690167
 20
222.17
 30
0.0
 11
401.483690167
 21
216.12
 31
0.0
  0
LINE
  5
17C
330
1F
100
AcDbEntity
  8
0
  6
LTYPE1
 62
     1
100
AcDbLine
 10
397.973690167
 20
219.21
 30
0.0
 11
405.203690167
 21
219.21
 31
0.0
  0
CIRCLE
  5
17D
330
1F
100
AcDbEntity
  8
0
  6
Continuous
 62
     1
100
AcDbCircle
 10
313.963690167
 20
219.14
 30
0.0
 40
1.6
  0
ARC
  5
17E
330
1F
100
AcDbEntity
  8
0
  6
Continuous
 62
     1
100
AcDbCircle
 10
313.963690167
 20
219.14
 30
0.0
 40
2.0
100
AcDbArc
 50
60.0
 51
30.0
  0
LINE
  5
17F
330
1F
100
AcDbEntity
  8
0
  6
LTYPE1
 62
     1
100
AcDbLine
 10
313.983690167
 20
222.17
 30
0.0
 11
313.983690167
 21
216.12
 31
0.0
  0
LINE
  5
180
330
1F
100
AcDbEntity
  8
0
  6
LTYPE1
 62
     1
100
AcDbLine
 10
310.473690167
 20
219.21
 30
0.0
 11
317.703690167
 21
219.21
 31
0.0
  0
CIRCLE
  5
181
330
1F
100
AcDbEntity
  8
0
  6
Continuous
 62
     1
100
AcDbCircle
 10
488.963690167
 20
144.28
 30
0.0
 40
1.6
  0
ARC
  5
182
330
1F
100
AcDbEntity
  8
0
  6
Continuous
 62
     1
100
AcDbCircle
 10
488.963690167
 20
144.28
 30
0.0
 40
2.0
100
AcDbArc
 50
330.0
 51
300.0
  0
LINE
  5
183
330
1F
100
AcDbEntity
  8
0
  6
LTYPE1
 62
     1
100
AcDbLine
 10
488.983690167
 20
141.25
 30
0.0
 11
488.983690167
 21
147.3
 31
0.0
  0
LINE
  5
184
330
1F
100
AcDbEntity
  8
0
  6
LTYPE1
 62
     1
100
AcDbLine
 10
485.473690167
 20
144.21
 30
0.0
 11
492.703690167
 21
144.21
 31
0.0
  0
CIRCLE
  5
185
330
1F
100
AcDbEntity
  8
0
  6
Continuous
 62
     1
100
AcDbCircle
 10
401.463690167
 20
144.28
 30
0.0
 40
1.6
  0
ARC
  5
186
330
1F
100
AcDbEntity
  8
0
  6
Continuous
 62
     1
100
AcDbCircle
 10
401.463690167
 20
144.28
 30
0.0
 40
2.0
100
AcDbArc
 50
330.0
 51
300.0
  0
LINE
  5
187
330
1F
100
AcDbEntity
  8
0
  6
LTYPE1
 62
     1
100
AcDbLine
 10
401.483690167
 20
141.25
 30
0.0
 11
401.483690167
 21
147.3
 31
0.0
  0
LINE
  5
188
330
1F
100
AcDbEntity
  8
0
  6
LTYPE1
 62
     1
100
AcDbLine
 10
397.973690167
 20
144.21
 30
0.0
 11
405.203690167
 21
144.21
 31
0.0
  0
CIRCLE
  5
189
330
1F
100
AcDbEntity
  8
0
  6
Continuous
 62
     1
100
AcDbCircle
 10
313.963690167
 20
144.28
 30
0.0
 40
1.6
  0
ARC
  5
18A
330
1F
100
AcDbEntity
  8
0
  6
Continuous
 62
     1
100
AcDbCircle
 10
313.963690167
 20
144.28
 30
0.0
 40
2.0
100
AcDbArc
 50
330.0
 51
300.0
  0
LINE
  5
18B
330
1F
100
AcDbEntity
  8
0
  6
LTYPE1
 62
     1
100
AcDbLine
 10
313.983690167
 20
141.25
 30
0.0
 11
313.983690167
 21
147.3
 31
0.0
  0
LINE
  5
18C
330
1F
100
AcDbEntity
  8
0
  6
LTYPE1
 62
     1
100
AcDbLine
 10
310.473690167
 20
144.21
 30
0.0
 11
317.703690167
 21
144.21
 31
0.0
  0
LWPOLYLINE
  5
18E
330
1F
100
AcDbEntity
  8
0
  6
Continuous
 62
     2
100
AcDbPolyline
 90
     4
 70
   129
 43
0.0
 10
276.463690167
 20
135.21
 10
526.463690167
 20
135.21
 10
526.463690167
 20
228.21
 10
276.463690167
 20
228.21
  0
LINE
  5
18F
330
1F
100
AcDbEntity
  8
0
  6
Continuous
 62
     1
100
AcDbLine
 10
526.463690167
 20
144.21
 30
0.0
 11
543.963690167
 21
144.21
 31
0.0
  0
LWPOLYLINE
  5
191
330
1F
100
AcDbEntity
  8
0
  6
Continuous
 62
     1
100
AcDbPolyline
 90
     4
 70
   128
 43
0.0
 10
543.963690167
 20
144.21
 10
543.963690167
 20
157.21
 10
526.463690167
 20
157.21
 10
526.463690167
 20
144.21
  0
LINE
  5
192
330
1F
100
AcDbEntity
  8
0
  6
Continuous
 62
     1
100
AcDbLine
 10
533.463690167
 20
144.21
 30
0.0
 11
533.463690167
 21
145.21
 31
0.0
  0
LINE
  5
193
330
1F
100
AcDbEntity
  8
0
  6
Continuous
 62
     1
100
AcDbLine
 10
533.463690167
 20
145.21
 30
0.0
 11
535.963690167
 21
145.21
 31
0.0
  0
LINE
  5
194
330
1F
100
AcDbEntity
  8
0
  6
Continuous
 62
     1
100
AcDbLine
 10
535.963690167
 20
145.21
 30
0.0
 11
535.963690167
 21
156.21
 31
0.0
  0
LINE
  5
195
330
1F
100
AcDbEntity
  8
0
  6
Continuous
 62
     1
100
AcDbLine
 10
535.963690167
 20
156.21
 30
0.0
 11
533.463690167
 21
156.21
 31
0.0
  0
LINE
  5
196
330
1F
100
AcDbEntity
  8
0
  6
Continuous
 62
     1
100
AcDbLine
 10
533.463690167
 20
156.21
 30
0.0
 11
533.463690167
 21
157.21
 31
0.0
  0
LINE
  5
197
330
1F
100
AcDbEntity
  8
0
  6
Continuous
 62
     2
100
AcDbLine
 10
526.463690167
 20
136.21
 30
0.0
 11
276.463690167
 21
136.21
 31
0.0
  0
LINE
  5
198
330
1F
100
AcDbEntity
  8
0
  6
Continuous
 62
     1
100
AcDbLine
 10
526.463690167
 20
206.71
 30
0.0
 11
550.463690167
 21
206.71
 31
0.0
  0
LWPOLYLINE
  5
19A
330
1F
100
AcDbEntity
  8
0
  6
Continuous
 62
     1
100
AcDbPolyline
 90
     4
 70
   128
 43
0.0
 10
550.463690167
 20
206.71
 10
550.463690167
 20
209.71
 10
526.463690167
 20
209.71
 10
526.463690167
 20
206.71
  0
LINE
  5
19B
330
1F
100
AcDbEntity
  8
0
  6
Continuous
 62
     1
100
AcDbLine
 10
274.663690167
 20
181.71
 30
0.0
 11
274.663690167
 21
212.61
 31
0.0
  0
LWPOLYLINE
  5
19D
330
1F
100
AcDbEntity
  8
0
  6
Continuous
 62
     1
100
AcDbPolyline
 90
     4
 70
   129
 43
0.0
 10
274.843690167
 20
221.46
 10
274.843690167
 20
213.46
 10
274.343690167
 20
213.46
 10
274.343690167
 20
221.46
  0
LINE
  5
19E
330
1F
100
AcDbEntity
  8
0
  6
Continuous
 62
     1
100
AcDbLine
 10
273.643690167
 20
214.46
 30
0.0
 11
274.343690167
 21
214.46
 31
0.0
  0
LWPOLYLINE
  5
1A0
330
1F
100
AcDbEntity
  8
0
  6
Continuous
 62
     1
100
AcDbPolyline
 90
     3
 70
   128
 43
0.0
 10
274.343690167
 20
220.46
 10
273.643690167
 20
220.46
 10
273.643690167
 20
214.46
  0
LINE
  5
1A1
330
1F
100
AcDbEntity
  8
0
  6
Continuous
 62
     1
100
AcDbLine
 10
274.343690167
 20
217.06
 30
0.0
 11
273.643690167
 21
217.86
 31
0.0
  0
ARC
  5
1A2
330
1F
100
AcDbEntity
  8
0
  6
Continuous
 62
     1
100
AcDbCircle
 10
273.643690167
 20
218.46
 30
0.0
 40
2.0
100
AcDbArc
 50
90.0
 51
180.0
  0
ARC
  5
1A3
330
1F
100
AcDbEntity
  8
0
  6
Continuous
 62
     1
100
AcDbCircle
 10
273.643690167
 20
216.46
 30
0.0
 40
2.0
100
AcDbArc
 50
180.0
 51
270.0
  0
LINE
  5
1A4
330
1F
100
AcDbEntity
  8
0
  6
Continuous
 62
     1
100
AcDbLine
 10
271.643690167
 20
216.46
 30
0.0
 11
271.643690167
 21
218.46
 31
0.0
  0
LINE
  5
1A5
330
1F
100
AcDbEntity
  8
0
  6
Continuous
 62
     1
100
AcDbLine
 10
271.643690167
 20
217.46
 30
0.0
 11
272.843690167
 21
218.66
 31
0.0
  0
LINE
  5
1A6
330
1F
100
AcDbEntity
  8
0
  6
Continuous
 62
     1
100
AcDbLine
 10
271.643690167
 20
217.46
 30
0.0
 11
272.843690167
 21
216.26
 31
0.0
  0
LINE
  5
1A7
330
1F
100
AcDbEntity
  8
0
  6
Continuous
 62
     1
100
AcDbLine
 10
273.063690167
 20
213.61
 30
0.0
 11
273.063690167
 21
214.61
 31
0.0
  0
ARC
  5
1A8
330
1F
100
AcDbEntity
  8
0
  6
Continuous
 62
     1
100
AcDbCircle
 10
275.663690167
 20
220.41
 30
0.0
 40
0.8
100
AcDbArc
 50
0.0
 51
90.0
  0
LINE
  5
1A9
330
1F
100
AcDbEntity
  8
0
  6
Continuous
 62
     1
100
AcDbLine
 10
275.663690167
 20
221.21
 30
0.0
 11
275.663690167
 21
221.21
 31
0.0
  0
LINE
  5
1AA
330
1F
100
AcDbEntity
  8
0
  6
Continuous
 62
     1
100
AcDbLine
 10
274.863690167
 20
215.71
 30
0.0
 11
274.863690167
 21
220.41
 31
0.0
  0
ARC
  5
1AB
330
1F
100
AcDbEntity
  8
0
  6
Continuous
 62
     1
100
AcDbCircle
 10
275.663690167
 20
220.41
 30
0.0
 40
0.8
100
AcDbArc
 50
90.0
 51
180.0
  0
LINE
  5
1AC
330
1F
100
AcDbEntity
  8
0
  6
Continuous
 62
     1
100
AcDbLine
 10
276.463690167
 20
220.41
 30
0.0
 11
276.463690167
 21
215.004061623
 31
0.0
  0
ARC
  5
1AD
330
1F
100
AcDbEntity
  8
0
  6
Continuous
 62
     1
100
AcDbCircle
 10
275.663690167
 20
215.004061623
 30
0.0
 40
0.8
100
AcDbArc
 50
319.635463427
 51
0.0
  0
LINE
  5
1AE
330
1F
100
AcDbEntity
  8
0
  6
Continuous
 62
     1
100
AcDbLine
 10
273.063690167
 20
210.415938377
 30
0.0
 11
273.063690167
 21
181.71
 31
0.0
  0
LINE
  5
1AF
330
1F
100
AcDbEntity
  8
0
  6
Continuous
 62
     1
100
AcDbLine
 10
276.273241622
 20
214.485942887
 30
0.0
 11
273.254138713
 21
210.934057113
 31
0.0
  0
ARC
  5
1B0
330
1F
100
AcDbEntity
  8
0
  6
Continuous
 62
     1
100
AcDbCircle
 10
273.863690167
 20
210.415938377
 30
0.0
 40
0.8
100
AcDbArc
 50
139.635463427
 51
180.0
  0
LINE
  5
1B1
330
1F
100
AcDbEntity
  8
0
  6
Continuous
 62
     1
100
AcDbLine
 10
271.654138713
 20
211.934057113
 30
0.0
 11
273.784190167
 21
214.44
 31
0.0
  0
ARC
  5
1B2
330
1F
100
AcDbEntity
  8
0
  6
Continuous
 62
     1
100
AcDbCircle
 10
272.263690167
 20
211.415938377
 30
0.0
 40
0.8
100
AcDbArc
 50
139.635463427
 51
180.0
  0
LINE
  5
1B3
330
1F
100
AcDbEntity
  8
0
  6
Continuous
 62
     1
100
AcDbLine
 10
274.663690167
 20
181.71
 30
0.0
 11
274.663690167
 21
150.81
 31
0.0
  0
LWPOLYLINE
  5
1B5
330
1F
100
AcDbEntity
  8
0
  6
Continuous
 62
     1
100
AcDbPolyline
 90
     4
 70
   129
 43
0.0
 10
274.843690167
 20
141.96
 10
274.843690167
 20
149.96
 10
274.343690167
 20
149.96
 10
274.343690167
 20
141.96
  0
LINE
  5
1B6
330
1F
100
AcDbEntity
  8
0
  6
Continuous
 62
     1
100
AcDbLine
 10
273.643690167
 20
148.96
 30
0.0
 11
274.343690167
 21
148.96
 31
0.0
  0
LWPOLYLINE
  5
1B8
330
1F
100
AcDbEntity
  8
0
  6
Continuous
 62
     1
100
AcDbPolyline
 90
     3
 70
   128
 43
0.0
 10
274.343690167
 20
142.96
 10
273.643690167
 20
142.96
 10
273.643690167
 20
148.96
  0
LINE
  5
1B9
330
1F
100
AcDbEntity
  8
0
  6
Continuous
 62
     1
100
AcDbLine
 10
274.343690167
 20
146.36
 30
0.0
 11
273.643690167
 21
145.56
 31
0.0
  0
ARC
  5
1BA
330
1F
100
AcDbEntity
  8
0
  6
Continuous
 62
     1
100
AcDbCircle
 10
273.643690167
 20
144.96
 30
0.0
 40
2.0
100
AcDbArc
 50
180.0
 51
270.0
  0
ARC
  5
1BB
330
1F
100
AcDbEntity
  8
0
  6
Continuous
 62
     1
100
AcDbCircle
 10
273.643690167
 20
146.96
 30
0.0
 40
2.0
100
AcDbArc
 50
90.0
 51
180.0
  0
LINE
  5
1BC
330
1F
100
AcDbEntity
  8
0
  6
Continuous
 62
     1
100
AcDbLine
 10
271.643690167
 20
146.96
 30
0.0
 11
271.643690167
 21
144.96
 31
0.0
  0
LINE
  5
1BD
330
1F
100
AcDbEntity
  8
0
  6
Continuous
 62
     1
100
AcDbLine
 10
271.643690167
 20
145.96
 30
0.0
 11
272.843690167
 21
144.76
 31
0.0
  0
LINE
  5
1BE
330
1F
100
AcDbEntity
  8
0
  6
Continuous
 62
     1
100
AcDbLine
 10
271.643690167
 20
145.96
 30
0.0
 11
272.843690167
 21
147.16
 31
0.0
  0
LINE
  5
1BF
330
1F
100
AcDbEntity
  8
0
  6
Continuous
 62
     1
100
AcDbLine
 10
273.063690167
 20
149.81
 30
0.0
 11
273.063690167
 21
148.81
 31
0.0
  0
ARC
  5
1C0
330
1F
100
AcDbEntity
  8
0
  6
Continuous
 62
     1
100
AcDbCircle
 10
275.663690167
 20
143.01
 30
0.0
 40
0.8
100
AcDbArc
 50
270.0
 51
0.0
  0
LINE
  5
1C1
330
1F
100
AcDbEntity
  8
0
  6
Continuous
 62
     1
100
AcDbLine
 10
275.663690167
 20
142.21
 30
0.0
 11
275.663690167
 21
142.21
 31
0.0
  0
LINE
  5
1C2
330
1F
100
AcDbEntity
  8
0
  6
Continuous
 62
     1
100
AcDbLine
 10
274.863690167
 20
147.71
 30
0.0
 11
274.863690167
 21
143.01
 31
0.0
  0
ARC
  5
1C3
330
1F
100
AcDbEntity
  8
0
  6
Continuous
 62
     1
100
AcDbCircle
 10
275.663690167
 20
143.01
 30
0.0
 40
0.8
100
AcDbArc
 50
180.0
 51
270.0
  0
LINE
  5
1C4
330
1F
100
AcDbEntity
  8
0
  6
Continuous
 62
     1
100
AcDbLine
 10
276.463690167
 20
143.01
 30
0.0
 11
276.463690167
 21
148.415938377
 31
0.0
  0
ARC
  5
1C5
330
1F
100
AcDbEntity
  8
0
  6
Continuous
 62
     1
100
AcDbCircle
 10
275.663690167
 20
148.415938377
 30
0.0
 40
0.8
100
AcDbArc
 50
0.0
 51
40.364536573
  0
LINE
  5
1C6
330
1F
100
AcDbEntity
  8
0
  6
Continuous
 62
     1
100
AcDbLine
 10
273.063690167
 20
153.004061623
 30
0.0
 11
273.063690167
 21
181.71
 31
0.0
  0
LINE
  5
1C7
330
1F
100
AcDbEntity
  8
0
  6
Continuous
 62
     1
100
AcDbLine
 10
276.273241622
 20
148.934057113
 30
0.0
 11
273.254138713
 21
152.485942887
 31
0.0
  0
ARC
  5
1C8
330
1F
100
AcDbEntity
  8
0
  6
Continuous
 62
     1
100
AcDbCircle
 10
273.863690167
 20
153.004061623
 30
0.0
 40
0.8
100
AcDbArc
 50
180.0
 51
220.364536573
  0
LINE
  5
1C9
330
1F
100
AcDbEntity
  8
0
  6
Continuous
 62
     1
100
AcDbLine
 10
271.654138713
 20
151.485942887
 30
0.0
 11
273.784190167
 21
148.98
 31
0.0
  0
ARC
  5
1CA
330
1F
100
AcDbEntity
  8
0
  6
Continuous
 62
     1
100
AcDbCircle
 10
272.263690167
 20
152.004061623
 30
0.0
 40
0.8
100
AcDbArc
 50
180.0
 51
220.364536573
  0
LINE
  5
1CB
330
1F
100
AcDbEntity
  8
0
  6
Continuous
 62
     1
100
AcDbLine
 10
271.463690167
 20
179.21
 30
0.0
 11
271.463690167
 21
152.004061623
 31
0.0
  0
ARC
  5
1CC
330
1F
100
AcDbEntity
  8
0
  6
Continuous
 62
     1
100
AcDbCircle
 10
272.263690167
 20
179.21
 30
0.0
 40
0.8
100
AcDbArc
 50
90.0
 51
180.0
  0
LINE
  5
1CD
330
1F
100
AcDbEntity
  8
0
  6
Continuous
 62
     1
100
AcDbLine
 10
271.463690167
 20
184.21
 30
0.0
 11
271.463690167
 21
211.415938377
 31
0.0
  0
LWPOLYLINE
  5
1CF
330
1F
100
AcDbEntity
  8
0
  6
Continuous
 62
     1
100
AcDbPolyline
 90
     3
 70
   128
 43
0.0
 10
271.463690167
 20
184.21
 42
0.414213562
 10
272.263690167
 20
183.41
 42
0.0
 10
272.263690167
 20
183.41
 42
0.0
  0
LINE
  5
1D0
330
1F
100
AcDbEntity
  8
0
  6
Continuous
 62
     1
100
AcDbLine
 10
273.063690167
 20
184.21
 30
0.0
 11
273.063690167
 21
184.41
 31
0.0
  0
ARC
  5
1D1
330
1F
100
AcDbEntity
  8
0
  6
Continuous
 62
     1
100
AcDbCircle
 10
272.263690167
 20
184.21
 30
0.0
 40
0.8
100
AcDbArc
 50
270.0
 51
0.0
  0
LINE
  5
1D2
330
1F
100
AcDbEntity
  8
0
  6
Continuous
 62
     1
100
AcDbLine
 10
272.263690167
 20
180.01
 30
0.0
 11
272.263690167
 21
180.01
 31
0.0
  0
LINE
  5
1D3
330
1F
100
AcDbEntity
  8
0
  6
Continuous
 62
     1
100
AcDbLine
 10
273.063690167
 20
179.21
 30
0.0
 11
273.063690167
 21
179.01
 31
0.0
  0
ARC
  5
1D4
330
1F
100
AcDbEntity
  8
0
  6
Continuous
 62
     1
100
AcDbCircle
 10
272.263690167
 20
179.21
 30
0.0
 40
0.8
100
AcDbArc
 50
0.0
 51
90.0
  0
LINE
  5
1D5
330
1F
100
AcDbEntity
  8
0
  6
Continuous
 62
     1
100
AcDbLine
 10
274.663690167
 20
181.71
 30
0.0
 11
274.663690167
 21
212.61
 31
0.0
  0
LWPOLYLINE
  5
1D7
330
1F
100
AcDbEntity
  8
0
  6
Continuous
 62
     1
100
AcDbPolyline
 90
     4
 70
   129
 43
0.0
 10
274.843690167
 20
221.46
 10
274.843690167
 20
213.46
 10
274.343690167
 20
213.46
 10
274.343690167
 20
221.46
  0
LINE
  5
1D8
330
1F
100
AcDbEntity
  8
0
  6
Continuous
 62
     1
100
AcDbLine
 10
273.643690167
 20
214.46
 30
0.0
 11
274.343690167
 21
214.46
 31
0.0
  0
LWPOLYLINE
  5
1DA
330
1F
100
AcDbEntity
  8
0
  6
Continuous
 62
     1
100
AcDbPolyline
 90
     3
 70
   128
 43
0.0
 10
274.343690167
 20
220.46
 10
273.643690167
 20
220.46
 10
273.643690167
 20
214.46
  0
LINE
  5
1DB
330
1F
100
AcDbEntity
  8
0
  6
Continuous
 62
     1
100
AcDbLine
 10
274.343690167
 20
217.06
 30
0.0
 11
273.643690167
 21
217.86
 31
0.0
  0
ARC
  5
1DC
330
1F
100
AcDbEntity
  8
0
  6
Continuous
 62
     1
100
AcDbCircle
 10
273.643690167
 20
218.46
 30
0.0
 40
2.0
100
AcDbArc
 50
90.0
 51
180.0
  0
ARC
  5
1DD
330
1F
100
AcDbEntity
  8
0
  6
Continuous
 62
     1
100
AcDbCircle
 10
273.643690167
 20
216.46
 30
0.0
 40
2.0
100
AcDbArc
 50
180.0
 51
270.0
  0
LINE
  5
1DE
330
1F
100
AcDbEntity
  8
0
  6
Continuous
 62
     1
100
AcDbLine
 10
271.643690167
 20
216.46
 30
0.0
 11
271.643690167
 21
218.46
 31
0.0
  0
LINE
  5
1DF
330
1F
100
AcDbEntity
  8
0
  6
Continuous
 62
     1
100
AcDbLine
 10
271.643690167
 20
217.46
 30
0.0
 11
272.843690167
 21
218.66
 31
0.0
  0
LINE
  5
1E0
330
1F
100
AcDbEntity
  8
0
  6
Continuous
 62
     1
100
AcDbLine
 10
271.643690167
 20
217.46
 30
0.0
 11
272.843690167
 21
216.26
 31
0.0
  0
LINE
  5
1E1
330
1F
100
AcDbEntity
  8
0
  6
Continuous
 62
     1
100
AcDbLine
 10
273.063690167
 20
213.61
 30
0.0
 11
273.063690167
 21
214.61
 31
0.0
  0
ARC
  5
1E2
330
1F
100
AcDbEntity
  8
0
  6
Continuous
 62
     1
100
AcDbCircle
 10
275.663690167
 20
220.41
 30
0.0
 40
0.8
100
AcDbArc
 50
0.0
 51
90.0
  0
LINE
  5
1E3
330
1F
100
AcDbEntity
  8
0
  6
Continuous
 62
     1
100
AcDbLine
 10
275.663690167
 20
221.21
 30
0.0
 11
275.663690167
 21
221.21
 31
0.0
  0
LINE
  5
1E4
330
1F
100
AcDbEntity
  8
0
  6
Continuous
 62
     1
100
AcDbLine
 10
274.863690167
 20
215.71
 30
0.0
 11
274.863690167
 21
220.41
 31
0.0
  0
ARC
  5
1E5
330
1F
100
AcDbEntity
  8
0
  6
Continuous
 62
     1
100
AcDbCircle
 10
275.663690167
 20
220.41
 30
0.0
 40
0.8
100
AcDbArc
 50
90.0
 51
180.0
  0
LINE
  5
1E6
330
1F
100
AcDbEntity
  8
0
  6
Continuous
 62
     1
100
AcDbLine
 10
276.463690167
 20
220.41
 30
0.0
 11
276.463690167
 21
215.004061623
 31
0.0
  0
ARC
  5
1E7
330
1F
100
AcDbEntity
  8
0
  6
Continuous
 62
     1
100
AcDbCircle
 10
275.663690167
 20
215.004061623
 30
0.0
 40
0.8
100
AcDbArc
 50
319.635463427
 51
0.0
  0
LINE
  5
1E8
330
1F
100
AcDbEntity
  8
0
  6
Continuous
 62
     1
100
AcDbLine
 10
273.063690167
 20
210.415938377
 30
0.0
 11
273.063690167
 21
181.71
 31
0.0
  0
LINE
  5
1E9
330
1F
100
AcDbEntity
  8
0
  6
Continuous
 62
     1
100
AcDbLine
 10
276.273241622
 20
214.485942887
 30
0.0
 11
273.254138713
 21
210.934057113
 31
0.0
  0
ARC
  5
1EA
330
1F
100
AcDbEntity
  8
0
  6
Continuous
 62
     1
100
AcDbCircle
 10
273.863690167
 20
210.415938377
 30
0.0
 40
0.8
100
AcDbArc
 50
139.635463427
 51
180.0
  0
LINE
  5
1EB
330
1F
100
AcDbEntity
  8
0
  6
Continuous
 62
     1
100
AcDbLine
 10
271.654138713
 20
211.934057113
 30
0.0
 11
273.784190167
 21
214.44
 31
0.0
  0
ARC
  5
1EC
330
1F
100
AcDbEntity
  8
0
  6
Continuous
 62
     1
100
AcDbCircle
 10
272.263690167
 20
211.415938377
 30
0.0
 40
0.8
100
AcDbArc
 50
139.635463427
 51
180.0
  0
LINE
  5
1ED
330
1F
100
AcDbEntity
  8
0
  6
Continuous
 62
     1
100
AcDbLine
 10
274.663690167
 20
181.71
 30
0.0
 11
274.663690167
 21
150.81
 31
0.0
  0
LWPOLYLINE
  5
1EF
330
1F
100
AcDbEntity
  8
0
  6
Continuous
 62
     1
100
AcDbPolyline
 90
     4
 70
   129
 43
0.0
 10
274.843690167
 20
141.96
 10
274.843690167
 20
149.96
 10
274.343690167
 20
149.96
 10
274.343690167
 20
141.96
  0
LINE
  5
1F0
330
1F
100
AcDbEntity
  8
0
  6
Continuous
 62
     1
100
AcDbLine
 10
273.643690167
 20
148.96
 30
0.0
 11
274.343690167
 21
148.96
 31
0.0
  0
LWPOLYLINE
  5
1F2
330
1F
100
AcDbEntity
  8
0
  6
Continuous
 62
     1
100
AcDbPolyline
 90
     3
 70
   128
 43
0.0
 10
274.343690167
 20
142.96
 10
273.643690167
 20
142.96
 10
273.643690167
 20
148.96
  0
LINE
  5
1F3
330
1F
100
AcDbEntity
  8
0
  6
Continuous
 62
     1
100
AcDbLine
 10
274.343690167
 20
146.36
 30
0.0
 11
273.643690167
 21
145.56
 31
0.0
  0
ARC
  5
1F4
330
1F
100
AcDbEntity
  8
0
  6
Continuous
 62
     1
100
AcDbCircle
 10
273.643690167
 20
144.96
 30
0.0
 40
2.0
100
AcDbArc
 50
180.0
 51
270.0
  0
ARC
  5
1F5
330
1F
100
AcDbEntity
  8
0
  6
Continuous
 62
     1
100
AcDbCircle
 10
273.643690167
 20
146.96
 30
0.0
 40
2.0
100
AcDbArc
 50
90.0
 51
180.0
  0
LINE
  5
1F6
330
1F
100
AcDbEntity
  8
0
  6
Continuous
 62
     1
100
AcDbLine
 10
271.643690167
 20
146.96
 30
0.0
 11
271.643690167
 21
144.96
 31
0.0
  0
LINE
  5
1F7
330
1F
100
AcDbEntity
  8
0
  6
Continuous
 62
     1
100
AcDbLine
 10
271.643690167
 20
145.96
 30
0.0
 11
272.843690167
 21
144.76
 31
0.0
  0
LINE
  5
1F8
330
1F
100
AcDbEntity
  8
0
  6
Continuous
 62
     1
100
AcDbLine
 10
271.643690167
 20
145.96
 30
0.0
 11
272.843690167
 21
147.16
 31
0.0
  0
LINE
  5
1F9
330
1F
100
AcDbEntity
  8
0
  6
Continuous
 62
     1
100
AcDbLine
 10
273.063690167
 20
149.81
 30
0.0
 11
273.063690167
 21
148.81
 31
0.0
  0
ARC
  5
1FA
330
1F
100
AcDbEntity
  8
0
  6
Continuous
 62
     1
100
AcDbCircle
 10
275.663690167
 20
143.01
 30
0.0
 40
0.8
100
AcDbArc
 50
270.0
 51
0.0
  0
LINE
  5
1FB
330
1F
100
AcDbEntity
  8
0
  6
Continuous
 62
     1
100
AcDbLine
 10
275.663690167
 20
142.21
 30
0.0
 11
275.663690167
 21
142.21
 31
0.0
  0
LINE
  5
1FC
330
1F
100
AcDbEntity
  8
0
  6
Continuous
 62
     1
100
AcDbLine
 10
274.863690167
 20
147.71
 30
0.0
 11
274.863690167
 21
143.01
 31
0.0
  0
ARC
  5
1FD
330
1F
100
AcDbEntity
  8
0
  6
Continuous
 62
     1
100
AcDbCircle
 10
275.663690167
 20
143.01
 30
0.0
 40
0.8
100
AcDbArc
 50
180.0
 51
270.0
  0
LINE
  5
1FE
330
1F
100
AcDbEntity
  8
0
  6
Continuous
 62
     1
100
AcDbLine
 10
276.463690167
 20
143.01
 30
0.0
 11
276.463690167
 21
148.415938377
 31
0.0
  0
ARC
  5
1FF
330
1F
100
AcDbEntity
  8
0
  6
Continuous
 62
     1
100
AcDbCircle
 10
275.663690167
 20
148.415938377
 30
0.0
 40
0.8
100
AcDbArc
 50
0.0
 51
40.364536573
  0
LINE
  5
200
330
1F
100
AcDbEntity
  8
0
  6
Continuous
 62
     1
100
AcDbLine
 10
273.063690167
 20
153.004061623
 30
0.0
 11
273.063690167
 21
181.71
 31
0.0
  0
LINE
  5
201
330
1F
100
AcDbEntity
  8
0
  6
Continuous
 62
     1
100
AcDbLine
 10
276.273241622
 20
148.934057113
 30
0.0
 11
273.254138713
 21
152.485942887
 31
0.0
  0
ARC
  5
202
330
1F
100
AcDbEntity
  8
0
  6
Continuous
 62
     1
100
AcDbCircle
 10
273.863690167
 20
153.004061623
 30
0.0
 40
0.8
100
AcDbArc
 50
180.0
 51
220.364536573
  0
LINE
  5
203
330
1F
100
AcDbEntity
  8
0
  6
Continuous
 62
     1
100
AcDbLine
 10
271.654138713
 20
151.485942887
 30
0.0
 11
273.784190167
 21
148.98
 31
0.0
  0
ARC
  5
204
330
1F
100
AcDbEntity
  8
0
  6
Continuous
 62
     1
100
AcDbCircle
 10
272.263690167
 20
152.004061623
 30
0.0
 40
0.8
100
AcDbArc
 50
180.0
 51
220.364536573
  0
LINE
  5
205
330
1F
100
AcDbEntity
  8
0
  6
Continuous
 62
     1
100
AcDbLine
 10
271.463690167
 20
179.21
 30
0.0
 11
271.463690167
 21
152.004061623
 31
0.0
  0
ARC
  5
206
330
1F
100
AcDbEntity
  8
0
  6
Continuous
 62
     1
100
AcDbCircle
 10
272.263690167
 20
179.21
 30
0.0
 40
0.8
100
AcDbArc
 50
90.0
 51
180.0
  0
LINE
  5
207
330
1F
100
AcDbEntity
  8
0
  6
Continuous
 62
     1
100
AcDbLine
 10
271.463690167
 20
184.21
 30
0.0
 11
271.463690167
 21
211.415938377
 31
0.0
  0
LWPOLYLINE
  5
209
330
1F
100
AcDbEntity
  8
0
  6
Continuous
 62
     1
100
AcDbPolyline
 90
     3
 70
   128
 43
0.0
 10
271.463690167
 20
184.21
 42
0.414213562
 10
272.263690167
 20
183.41
 42
0.0
 10
272.263690167
 20
183.41
 42
0.0
  0
LINE
  5
20A
330
1F
100
AcDbEntity
  8
0
  6
Continuous
 62
     1
100
AcDbLine
 10
273.063690167
 20
184.21
 30
0.0
 11
273.063690167
 21
184.41
 31
0.0
  0
ARC
  5
20B
330
1F
100
AcDbEntity
  8
0
  6
Continuous
 62
     1
100
AcDbCircle
 10
272.263690167
 20
184.21
 30
0.0
 40
0.8
100
AcDbArc
 50
270.0
 51
0.0
  0
LINE
  5
20C
330
1F
100
AcDbEntity
  8
0
  6
Continuous
 62
     1
100
AcDbLine
 10
272.263690167
 20
180.01
 30
0.0
 11
272.263690167
 21
180.01
 31
0.0
  0
LINE
  5
20D
330
1F
100
AcDbEntity
  8
0
  6
Continuous
 62
     1
100
AcDbLine
 10
273.063690167
 20
179.21
 30
0.0
 11
273.063690167
 21
179.01
 31
0.0
  0
ARC
  5
20E
330
1F
100
AcDbEntity
  8
0
  6
Continuous
 62
     1
100
AcDbCircle
 10
272.263690167
 20
179.21
 30
0.0
 40
0.8
100
AcDbArc
 50
0.0
 51
90.0
  0
LINE
  5
20F
330
1F
100
AcDbEntity
  8
0
  6
Continuous
 62
     1
100
AcDbLine
 10
274.663690167
 20
181.71
 30
0.0
 11
274.663690167
 21
212.61
 31
0.0
  0
LWPOLYLINE
  5
211
330
1F
100
AcDbEntity
  8
0
  6
Continuous
 62
     1
100
AcDbPolyline
 90
     4
 70
   129
 43
0.0
 10
274.843690167
 20
221.46
 10
274.843690167
 20
213.46
 10
274.343690167
 20
213.46
 10
274.343690167
 20
221.46
  0
LINE
  5
212
330
1F
100
AcDbEntity
  8
0
  6
Continuous
 62
     1
100
AcDbLine
 10
273.643690167
 20
214.46
 30
0.0
 11
274.343690167
 21
214.46
 31
0.0
  0
LWPOLYLINE
  5
214
330
1F
100
AcDbEntity
  8
0
  6
Continuous
 62
     1
100
AcDbPolyline
 90
     3
 70
   128
 43
0.0
 10
274.343690167
 20
220.46
 10
273.643690167
 20
220.46
 10
273.643690167
 20
214.46
  0
LINE
  5
215
330
1F
100
AcDbEntity
  8
0
  6
Continuous
 62
     1
100
AcDbLine
 10
274.343690167
 20
217.06
 30
0.0
 11
273.643690167
 21
217.86
 31
0.0
  0
ARC
  5
216
330
1F
100
AcDbEntity
  8
0
  6
Continuous
 62
     1
100
AcDbCircle
 10
273.643690167
 20
218.46
 30
0.0
 40
2.0
100
AcDbArc
 50
90.0
 51
180.0
  0
ARC
  5
217
330
1F
100
AcDbEntity
  8
0
  6
Continuous
 62
     1
100
AcDbCircle
 10
273.643690167
 20
216.46
 30
0.0
 40
2.0
100
AcDbArc
 50
180.0
 51
270.0
  0
LINE
  5
218
330
1F
100
AcDbEntity
  8
0
  6
Continuous
 62
     1
100
AcDbLine
 10
271.643690167
 20
216.46
 30
0.0
 11
271.643690167
 21
218.46
 31
0.0
  0
LINE
  5
219
330
1F
100
AcDbEntity
  8
0
  6
Continuous
 62
     1
100
AcDbLine
 10
271.643690167
 20
217.46
 30
0.0
 11
272.843690167
 21
218.66
 31
0.0
  0
LINE
  5
21A
330
1F
100
AcDbEntity
  8
0
  6
Continuous
 62
     1
100
AcDbLine
 10
271.643690167
 20
217.46
 30
0.0
 11
272.843690167
 21
216.26
 31
0.0
  0
LINE
  5
21B
330
1F
100
AcDbEntity
  8
0
  6
Continuous
 62
     1
100
AcDbLine
 10
273.063690167
 20
213.61
 30
0.0
 11
273.063690167
 21
214.61
 31
0.0
  0
ARC
  5
21C
330
1F
100
AcDbEntity
  8
0
  6
Continuous
 62
     1
100
AcDbCircle
 10
275.663690167
 20
220.41
 30
0.0
 40
0.8
100
AcDbArc
 50
0.0
 51
90.0
  0
LINE
  5
21D
330
1F
100
AcDbEntity
  8
0
  6
Continuous
 62
     1
100
AcDbLine
 10
275.663690167
 20
221.21
 30
0.0
 11
275.663690167
 21
221.21
 31
0.0
  0
LINE
  5
21E
330
1F
100
AcDbEntity
  8
0
  6
Continuous
 62
     1
100
AcDbLine
 10
274.863690167
 20
215.71
 30
0.0
 11
274.863690167
 21
220.41
 31
0.0
  0
ARC
  5
21F
330
1F
100
AcDbEntity
  8
0
  6
Continuous
 62
     1
100
AcDbCircle
 10
275.663690167
 20
220.41
 30
0.0
 40
0.8
100
AcDbArc
 50
90.0
 51
180.0
  0
LINE
  5
220
330
1F
100
AcDbEntity
  8
0
  6
Continuous
 62
     1
100
AcDbLine
 10
276.463690167
 20
220.41
 30
0.0
 11
276.463690167
 21
215.004061623
 31
0.0
  0
ARC
  5
221
330
1F
100
AcDbEntity
  8
0
  6
Continuous
 62
     1
100
AcDbCircle
 10
275.663690167
 20
215.004061623
 30
0.0
 40
0.8
100
AcDbArc
 50
319.635463427
 51
0.0
  0
LINE
  5
222
330
1F
100
AcDbEntity
  8
0
  6
Continuous
 62
     1
100
AcDbLine
 10
273.063690167
 20
210.415938377
 30
0.0
 11
273.063690167
 21
181.71
 31
0.0
  0
LINE
  5
223
330
1F
100
AcDbEntity
  8
0
  6
Continuous
 62
     1
100
AcDbLine
 10
276.273241622
 20
214.485942887
 30
0.0
 11
273.254138713
 21
210.934057113
 31
0.0
  0
ARC
  5
224
330
1F
100
AcDbEntity
  8
0
  6
Continuous
 62
     1
100
AcDbCircle
 10
273.863690167
 20
210.415938377
 30
0.0
 40
0.8
100
AcDbArc
 50
139.635463427
 51
180.0
  0
LINE
  5
225
330
1F
100
AcDbEntity
  8
0
  6
Continuous
 62
     1
100
AcDbLine
 10
271.654138713
 20
211.934057113
 30
0.0
 11
273.784190167
 21
214.44
 31
0.0
  0
ARC
  5
226
330
1F
100
AcDbEntity
  8
0
  6
Continuous
 62
     1
100
AcDbCircle
 10
272.263690167
 20
211.415938377
 30
0.0
 40
0.8
100
AcDbArc
 50
139.635463427
 51
180.0
  0
LINE
  5
227
330
1F
100
AcDbEntity
  8
0
  6
Continuous
 62
     1
100
AcDbLine
 10
274.663690167
 20
181.71
 30
0.0
 11
274.663690167
 21
150.81
 31
0.0
  0
LWPOLYLINE
  5
229
330
1F
100
AcDbEntity
  8
0
  6
Continuous
 62
     1
100
AcDbPolyline
 90
     4
 70
   129
 43
0.0
 10
274.843690167
 20
141.96
 10
274.843690167
 20
149.96
 10
274.343690167
 20
149.96
 10
274.343690167
 20
141.96
  0
LINE
  5
22A
330
1F
100
AcDbEntity
  8
0
  6
Continuous
 62
     1
100
AcDbLine
 10
273.643690167
 20
148.96
 30
0.0
 11
274.343690167
 21
148.96
 31
0.0
  0
LWPOLYLINE
  5
22C
330
1F
100
AcDbEntity
  8
0
  6
Continuous
 62
     1
100
AcDbPolyline
 90
     3
 70
   128
 43
0.0
 10
274.343690167
 20
142.96
 10
273.643690167
 20
142.96
 10
273.643690167
 20
148.96
  0
LINE
  5
22D
330
1F
100
AcDbEntity
  8
0
  6
Continuous
 62
     1
100
AcDbLine
 10
274.343690167
 20
146.36
 30
0.0
 11
273.643690167
 21
145.56
 31
0.0
  0
ARC
  5
22E
330
1F
100
AcDbEntity
  8
0
  6
Continuous
 62
     1
100
AcDbCircle
 10
273.643690167
 20
144.96
 30
0.0
 40
2.0
100
AcDbArc
 50
180.0
 51
270.0
  0
ARC
  5
22F
330
1F
100
AcDbEntity
  8
0
  6
Continuous
 62
     1
100
AcDbCircle
 10
273.643690167
 20
146.96
 30
0.0
 40
2.0
100
AcDbArc
 50
90.0
 51
180.0
  0
LINE
  5
230
330
1F
100
AcDbEntity
  8
0
  6
Continuous
 62
     1
100
AcDbLine
 10
271.643690167
 20
146.96
 30
0.0
 11
271.643690167
 21
144.96
 31
0.0
  0
LINE
  5
231
330
1F
100
AcDbEntity
  8
0
  6
Continuous
 62
     1
100
AcDbLine
 10
271.643690167
 20
145.96
 30
0.0
 11
272.843690167
 21
144.76
 31
0.0
  0
LINE
  5
232
330
1F
100
AcDbEntity
  8
0
  6
Continuous
 62
     1
100
AcDbLine
 10
271.643690167
 20
145.96
 30
0.0
 11
272.843690167
 21
147.16
 31
0.0
  0
LINE
  5
233
330
1F
100
AcDbEntity
  8
0
  6
Continuous
 62
     1
100
AcDbLine
 10
273.063690167
 20
149.81
 30
0.0
 11
273.063690167
 21
148.81
 31
0.0
  0
ARC
  5
234
330
1F
100
AcDbEntity
  8
0
  6
Continuous
 62
     1
100
AcDbCircle
 10
275.663690167
 20
143.01
 30
0.0
 40
0.8
100
AcDbArc
 50
270.0
 51
0.0
  0
LINE
  5
235
330
1F
100
AcDbEntity
  8
0
  6
Continuous
 62
     1
100
AcDbLine
 10
275.663690167
 20
142.21
 30
0.0
 11
275.663690167
 21
142.21
 31
0.0
  0
LINE
  5
236
330
1F
100
AcDbEntity
  8
0
  6
Continuous
 62
     1
100
AcDbLine
 10
274.863690167
 20
147.71
 30
0.0
 11
274.863690167
 21
143.01
 31
0.0
  0
ARC
  5
237
330
1F
100
AcDbEntity
  8
0
  6
Continuous
 62
     1
100
AcDbCircle
 10
275.663690167
 20
143.01
 30
0.0
 40
0.8
100
AcDbArc
 50
180.0
 51
270.0
  0
LINE
  5
238
330
1F
100
AcDbEntity
  8
0
  6
Continuous
 62
     1
100
AcDbLine
 10
276.463690167
 20
143.01
 30
0.0
 11
276.463690167
 21
148.415938377
 31
0.0
  0
ARC
  5
239
330
1F
100
AcDbEntity
  8
0
  6
Continuous
 62
     1
100
AcDbCircle
 10
275.663690167
 20
148.415938377
 30
0.0
 40
0.8
100
AcDbArc
 50
0.0
 51
40.364536573
  0
LINE
  5
23A
330
1F
100
AcDbEntity
  8
0
  6
Continuous
 62
     1
100
AcDbLine
 10
273.063690167
 20
153.004061623
 30
0.0
 11
273.063690167
 21
181.71
 31
0.0
  0
LINE
  5
23B
330
1F
100
AcDbEntity
  8
0
  6
Continuous
 62
     1
100
AcDbLine
 10
276.273241622
 20
148.934057113
 30
0.0
 11
273.254138713
 21
152.485942887
 31
0.0
  0
ARC
  5
23C
330
1F
100
AcDbEntity
  8
0
  6
Continuous
 62
     1
100
AcDbCircle
 10
273.863690167
 20
153.004061623
 30
0.0
 40
0.8
100
AcDbArc
 50
180.0
 51
220.364536573
  0
LINE
  5
23D
330
1F
100
AcDbEntity
  8
0
  6
Continuous
 62
     1
100
AcDbLine
 10
271.654138713
 20
151.485942887
 30
0.0
 11
273.784190167
 21
148.98
 31
0.0
  0
ARC
  5
23E
330
1F
100
AcDbEntity
  8
0
  6
Continuous
 62
     1
100
AcDbCircle
 10
272.263690167
 20
152.004061623
 30
0.0
 40
0.8
100
AcDbArc
 50
180.0
 51
220.364536573
  0
LINE
  5
23F
330
1F
100
AcDbEntity
  8
0
  6
Continuous
 62
     1
100
AcDbLine
 10
271.463690167
 20
179.21
 30
0.0
 11
271.463690167
 21
152.004061623
 31
0.0
  0
ARC
  5
240
330
1F
100
AcDbEntity
  8
0
  6
Continuous
 62
     1
100
AcDbCircle
 10
272.263690167
 20
179.21
 30
0.0
 40
0.8
100
AcDbArc
 50
90.0
 51
180.0
  0
LINE
  5
241
330
1F
100
AcDbEntity
  8
0
  6
Continuous
 62
     1
100
AcDbLine
 10
271.463690167
 20
184.21
 30
0.0
 11
271.463690167
 21
211.415938377
 31
0.0
  0
LWPOLYLINE
  5
243
330
1F
100
AcDbEntity
  8
0
  6
Continuous
 62
     1
100
AcDbPolyline
 90
     3
 70
   128
 43
0.0
 10
271.463690167
 20
184.21
 42
0.414213562
 10
272.263690167
 20
183.41
 42
0.0
 10
272.263690167
 20
183.41
 42
0.0
  0
LINE
  5
244
330
1F
100
AcDbEntity
  8
0
  6
Continuous
 62
     1
100
AcDbLine
 10
273.063690167
 20
184.21
 30
0.0
 11
273.063690167
 21
184.41
 31
0.0
  0
ARC
  5
245
330
1F
100
AcDbEntity
  8
0
  6
Continuous
 62
     1
100
AcDbCircle
 10
272.263690167
 20
184.21
 30
0.0
 40
0.8
100
AcDbArc
 50
270.0
 51
0.0
  0
LINE
  5
246
330
1F
100
AcDbEntity
  8
0
  6
Continuous
 62
     1
100
AcDbLine
 10
272.263690167
 20
180.01
 30
0.0
 11
272.263690167
 21
180.01
 31
0.0
  0
LINE
  5
247
330
1F
100
AcDbEntity
  8
0
  6
Continuous
 62
     1
100
AcDbLine
 10
273.063690167
 20
179.21
 30
0.0
 11
273.063690167
 21
179.01
 31
0.0
  0
ARC
  5
248
330
1F
100
AcDbEntity
  8
0
  6
Continuous
 62
     1
100
AcDbCircle
 10
272.263690167
 20
179.21
 30
0.0
 40
0.8
100
AcDbArc
 50
0.0
 51
90.0
  0
LINE
  5
249
330
1F
100
AcDbEntity
  8
0
  6
Continuous
 62
     1
100
AcDbLine
 10
274.663690167
 20
181.71
 30
0.0
 11
274.663690167
 21
212.61
 31
0.0
  0
LWPOLYLINE
  5
24B
330
1F
100
AcDbEntity
  8
0
  6
Continuous
 62
     1
100
AcDbPolyline
 90
     4
 70
   129
 43
0.0
 10
274.843690167
 20
221.46
 10
274.843690167
 20
213.46
 10
274.343690167
 20
213.46
 10
274.343690167
 20
221.46
  0
LINE
  5
24C
330
1F
100
AcDbEntity
  8
0
  6
Continuous
 62
     1
100
AcDbLine
 10
273.643690167
 20
214.46
 30
0.0
 11
274.343690167
 21
214.46
 31
0.0
  0
LWPOLYLINE
  5
24E
330
1F
100
AcDbEntity
  8
0
  6
Continuous
 62
     1
100
AcDbPolyline
 90
     3
 70
   128
 43
0.0
 10
274.343690167
 20
220.46
 10
273.643690167
 20
220.46
 10
273.643690167
 20
214.46
  0
LINE
  5
24F
330
1F
100
AcDbEntity
  8
0
  6
Continuous
 62
     1
100
AcDbLine
 10
274.343690167
 20
217.06
 30
0.0
 11
273.643690167
 21
217.86
 31
0.0
  0
ARC
  5
250
330
1F
100
AcDbEntity
  8
0
  6
Continuous
 62
     1
100
AcDbCircle
 10
273.643690167
 20
218.46
 30
0.0
 40
2.0
100
AcDbArc
 50
90.0
 51
180.0
  0
ARC
  5
251
330
1F
100
AcDbEntity
  8
0
  6
Continuous
 62
     1
100
AcDbCircle
 10
273.643690167
 20
216.46
 30
0.0
 40
2.0
100
AcDbArc
 50
180.0
 51
270.0
  0
LINE
  5
252
330
1F
100
AcDbEntity
  8
0
  6
Continuous
 62
     1
100
AcDbLine
 10
271.643690167
 20
216.46
 30
0.0
 11
271.643690167
 21
218.46
 31
0.0
  0
LINE
  5
253
330
1F
100
AcDbEntity
  8
0
  6
Continuous
 62
     1
100
AcDbLine
 10
271.643690167
 20
217.46
 30
0.0
 11
272.843690167
 21
218.66
 31
0.0
  0
LINE
  5
254
330
1F
100
AcDbEntity
  8
0
  6
Continuous
 62
     1
100
AcDbLine
 10
271.643690167
 20
217.46
 30
0.0
 11
272.843690167
 21
216.26
 31
0.0
  0
LINE
  5
255
330
1F
100
AcDbEntity
  8
0
  6
Continuous
 62
     1
100
AcDbLine
 10
273.063690167
 20
213.61
 30
0.0
 11
273.063690167
 21
214.61
 31
0.0
  0
ARC
  5
256
330
1F
100
AcDbEntity
  8
0
  6
Continuous
 62
     1
100
AcDbCircle
 10
275.663690167
 20
220.41
 30
0.0
 40
0.8
100
AcDbArc
 50
0.0
 51
90.0
  0
LINE
  5
257
330
1F
100
AcDbEntity
  8
0
  6
Continuous
 62
     1
100
AcDbLine
 10
275.663690167
 20
221.21
 30
0.0
 11
275.663690167
 21
221.21
 31
0.0
  0
LINE
  5
258
330
1F
100
AcDbEntity
  8
0
  6
Continuous
 62
     1
100
AcDbLine
 10
274.863690167
 20
215.71
 30
0.0
 11
274.863690167
 21
220.41
 31
0.0
  0
ARC
  5
259
330
1F
100
AcDbEntity
  8
0
  6
Continuous
 62
     1
100
AcDbCircle
 10
275.663690167
 20
220.41
 30
0.0
 40
0.8
100
AcDbArc
 50
90.0
 51
180.0
  0
LINE
  5
25A
330
1F
100
AcDbEntity
  8
0
  6
Continuous
 62
     1
100
AcDbLine
 10
276.463690167
 20
220.41
 30
0.0
 11
276.463690167
 21
215.004061623
 31
0.0
  0
ARC
  5
25B
330
1F
100
AcDbEntity
  8
0
  6
Continuous
 62
     1
100
AcDbCircle
 10
275.663690167
 20
215.004061623
 30
0.0
 40
0.8
100
AcDbArc
 50
319.635463427
 51
0.0
  0
LINE
  5
25C
330
1F
100
AcDbEntity
  8
0
  6
Continuous
 62
     1
100
AcDbLine
 10
273.063690167
 20
210.415938377
 30
0.0
 11
273.063690167
 21
181.71
 31
0.0
  0
LINE
  5
25D
330
1F
100
AcDbEntity
  8
0
  6
Continuous
 62
     1
100
AcDbLine
 10
276.273241622
 20
214.485942887
 30
0.0
 11
273.254138713
 21
210.934057113
 31
0.0
  0
ARC
  5
25E
330
1F
100
AcDbEntity
  8
0
  6
Continuous
 62
     1
100
AcDbCircle
 10
273.863690167
 20
210.415938377
 30
0.0
 40
0.8
100
AcDbArc
 50
139.635463427
 51
180.0
  0
LINE
  5
25F
330
1F
100
AcDbEntity
  8
0
  6
Continuous
 62
     1
100
AcDbLine
 10
271.654138713
 20
211.934057113
 30
0.0
 11
273.784190167
 21
214.44
 31
0.0
  0
ARC
  5
260
330
1F
100
AcDbEntity
  8
0
  6
Continuous
 62
     1
100
AcDbCircle
 10
272.263690167
 20
211.415938377
 30
0.0
 40
0.8
100
AcDbArc
 50
139.635463427
 51
180.0
  0
LINE
  5
261
330
1F
100
AcDbEntity
  8
0
  6
Continuous
 62
     1
100
AcDbLine
 10
274.663690167
 20
181.71
 30
0.0
 11
274.663690167
 21
150.81
 31
0.0
  0
LWPOLYLINE
  5
263
330
1F
100
AcDbEntity
  8
0
  6
Continuous
 62
     1
100
AcDbPolyline
 90
     4
 70
   129
 43
0.0
 10
274.843690167
 20
141.96
 10
274.843690167
 20
149.96
 10
274.343690167
 20
149.96
 10
274.343690167
 20
141.96
  0
LINE
  5
264
330
1F
100
AcDbEntity
  8
0
  6
Continuous
 62
     1
100
AcDbLine
 10
273.643690167
 20
148.96
 30
0.0
 11
274.343690167
 21
148.96
 31
0.0
  0
LWPOLYLINE
  5
266
330
1F
100
AcDbEntity
  8
0
  6
Continuous
 62
     1
100
AcDbPolyline
 90
     3
 70
   128
 43
0.0
 10
274.343690167
 20
142.96
 10
273.643690167
 20
142.96
 10
273.643690167
 20
148.96
  0
LINE
  5
267
330
1F
100
AcDbEntity
  8
0
  6
Continuous
 62
     1
100
AcDbLine
 10
274.343690167
 20
146.36
 30
0.0
 11
273.643690167
 21
145.56
 31
0.0
  0
ARC
  5
268
330
1F
100
AcDbEntity
  8
0
  6
Continuous
 62
     1
100
AcDbCircle
 10
273.643690167
 20
144.96
 30
0.0
 40
2.0
100
AcDbArc
 50
180.0
 51
270.0
  0
ARC
  5
269
330
1F
100
AcDbEntity
  8
0
  6
Continuous
 62
     1
100
AcDbCircle
 10
273.643690167
 20
146.96
 30
0.0
 40
2.0
100
AcDbArc
 50
90.0
 51
180.0
  0
LINE
  5
26A
330
1F
100
AcDbEntity
  8
0
  6
Continuous
 62
     1
100
AcDbLine
 10
271.643690167
 20
146.96
 30
0.0
 11
271.643690167
 21
144.96
 31
0.0
  0
LINE
  5
26B
330
1F
100
AcDbEntity
  8
0
  6
Continuous
 62
     1
100
AcDbLine
 10
271.643690167
 20
145.96
 30
0.0
 11
272.843690167
 21
144.76
 31
0.0
  0
LINE
  5
26C
330
1F
100
AcDbEntity
  8
0
  6
Continuous
 62
     1
100
AcDbLine
 10
271.643690167
 20
145.96
 30
0.0
 11
272.843690167
 21
147.16
 31
0.0
  0
LINE
  5
26D
330
1F
100
AcDbEntity
  8
0
  6
Continuous
 62
     1
100
AcDbLine
 10
273.063690167
 20
149.81
 30
0.0
 11
273.063690167
 21
148.81
 31
0.0
  0
ARC
  5
26E
330
1F
100
AcDbEntity
  8
0
  6
Continuous
 62
     1
100
AcDbCircle
 10
275.663690167
 20
143.01
 30
0.0
 40
0.8
100
AcDbArc
 50
270.0
 51
0.0
  0
LINE
  5
26F
330
1F
100
AcDbEntity
  8
0
  6
Continuous
 62
     1
100
AcDbLine
 10
275.663690167
 20
142.21
 30
0.0
 11
275.663690167
 21
142.21
 31
0.0
  0
LINE
  5
270
330
1F
100
AcDbEntity
  8
0
  6
Continuous
 62
     1
100
AcDbLine
 10
274.863690167
 20
147.71
 30
0.0
 11
274.863690167
 21
143.01
 31
0.0
  0
ARC
  5
271
330
1F
100
AcDbEntity
  8
0
  6
Continuous
 62
     1
100
AcDbCircle
 10
275.663690167
 20
143.01
 30
0.0
 40
0.8
100
AcDbArc
 50
180.0
 51
270.0
  0
LINE
  5
272
330
1F
100
AcDbEntity
  8
0
  6
Continuous
 62
     1
100
AcDbLine
 10
276.463690167
 20
143.01
 30
0.0
 11
276.463690167
 21
148.415938377
 31
0.0
  0
ARC
  5
273
330
1F
100
AcDbEntity
  8
0
  6
Continuous
 62
     1
100
AcDbCircle
 10
275.663690167
 20
148.415938377
 30
0.0
 40
0.8
100
AcDbArc
 50
0.0
 51
40.364536573
  0
LINE
  5
274
330
1F
100
AcDbEntity
  8
0
  6
Continuous
 62
     1
100
AcDbLine
 10
273.063690167
 20
153.004061623
 30
0.0
 11
273.063690167
 21
181.71
 31
0.0
  0
LINE
  5
275
330
1F
100
AcDbEntity
  8
0
  6
Continuous
 62
     1
100
AcDbLine
 10
276.273241622
 20
148.934057113
 30
0.0
 11
273.254138713
 21
152.485942887
 31
0.0
  0
ARC
  5
276
330
1F
100
AcDbEntity
  8
0
  6
Continuous
 62
     1
100
AcDbCircle
 10
273.863690167
 20
153.004061623
 30
0.0
 40
0.8
100
AcDbArc
 50
180.0
 51
220.364536573
  0
LINE
  5
277
330
1F
100
AcDbEntity
  8
0
  6
Continuous
 62
     1
100
AcDbLine
 10
271.654138713
 20
151.485942887
 30
0.0
 11
273.784190167
 21
148.98
 31
0.0
  0
ARC
  5
278
330
1F
100
AcDbEntity
  8
0
  6
Continuous
 62
     1
100
AcDbCircle
 10
272.263690167
 20
152.004061623
 30
0.0
 40
0.8
100
AcDbArc
 50
180.0
 51
220.364536573
  0
LINE
  5
279
330
1F
100
AcDbEntity
  8
0
  6
Continuous
 62
     1
100
AcDbLine
 10
271.463690167
 20
179.21
 30
0.0
 11
271.463690167
 21
152.004061623
 31
0.0
  0
ARC
  5
27A
330
1F
100
AcDbEntity
  8
0
  6
Continuous
 62
     1
100
AcDbCircle
 10
272.263690167
 20
179.21
 30
0.0
 40
0.8
100
AcDbArc
 50
90.0
 51
180.0
  0
LINE
  5
27B
330
1F
100
AcDbEntity
  8
0
  6
Continuous
 62
     1
100
AcDbLine
 10
271.463690167
 20
184.21
 30
0.0
 11
271.463690167
 21
211.415938377
 31
0.0
  0
LWPOLYLINE
  5
27D
330
1F
100
AcDbEntity
  8
0
  6
Continuous
 62
     1
100
AcDbPolyline
 90
     3
 70
   128
 43
0.0
 10
271.463690167
 20
184.21
 42
0.414213562
 10
272.263690167
 20
183.41
 42
0.0
 10
272.263690167
 20
183.41
 42
0.0
  0
LINE
  5
27E
330
1F
100
AcDbEntity
  8
0
  6
Continuous
 62
     1
100
AcDbLine
 10
273.063690167
 20
184.21
 30
0.0
 11
273.063690167
 21
184.41
 31
0.0
  0
ARC
  5
27F
330
1F
100
AcDbEntity
  8
0
  6
Continuous
 62
     1
100
AcDbCircle
 10
272.263690167
 20
184.21
 30
0.0
 40
0.8
100
AcDbArc
 50
270.0
 51
0.0
  0
LINE
  5
280
330
1F
100
AcDbEntity
  8
0
  6
Continuous
 62
     1
100
AcDbLine
 10
272.263690167
 20
180.01
 30
0.0
 11
272.263690167
 21
180.01
 31
0.0
  0
LINE
  5
281
330
1F
100
AcDbEntity
  8
0
  6
Continuous
 62
     1
100
AcDbLine
 10
273.063690167
 20
179.21
 30
0.0
 11
273.063690167
 21
179.01
 31
0.0
  0
ARC
  5
282
330
1F
100
AcDbEntity
  8
0
  6
Continuous
 62
     1
100
AcDbCircle
 10
272.263690167
 20
179.21
 30
0.0
 40
0.8
100
AcDbArc
 50
0.0
 51
90.0
  0
LINE
  5
283
330
1F
100
AcDbEntity
  8
0
  6
Continuous
 62
     1
100
AcDbLine
 10
274.663690167
 20
181.71
 30
0.0
 11
274.663690167
 21
212.61
 31
0.0
  0
LWPOLYLINE
  5
285
330
1F
100
AcDbEntity
  8
0
  6
Continuous
 62
     1
100
AcDbPolyline
 90
     4
 70
   129
 43
0.0
 10
274.843690167
 20
221.46
 10
274.843690167
 20
213.46
 10
274.343690167
 20
213.46
 10
274.343690167
 20
221.46
  0
LINE
  5
286
330
1F
100
AcDbEntity
  8
0
  6
Continuous
 62
     1
100
AcDbLine
 10
273.643690167
 20
214.46
 30
0.0
 11
274.343690167
 21
214.46
 31
0.0
  0
LWPOLYLINE
  5
288
330
1F
100
AcDbEntity
  8
0
  6
Continuous
 62
     1
100
AcDbPolyline
 90
     3
 70
   128
 43
0.0
 10
274.343690167
 20
220.46
 10
273.643690167
 20
220.46
 10
273.643690167
 20
214.46
  0
LINE
  5
289
330
1F
100
AcDbEntity
  8
0
  6
Continuous
 62
     1
100
AcDbLine
 10
274.343690167
 20
217.06
 30
0.0
 11
273.643690167
 21
217.86
 31
0.0
  0
ARC
  5
28A
330
1F
100
AcDbEntity
  8
0
  6
Continuous
 62
     1
100
AcDbCircle
 10
273.643690167
 20
218.46
 30
0.0
 40
2.0
100
AcDbArc
 50
90.0
 51
180.0
  0
ARC
  5
28B
330
1F
100
AcDbEntity
  8
0
  6
Continuous
 62
     1
100
AcDbCircle
 10
273.643690167
 20
216.46
 30
0.0
 40
2.0
100
AcDbArc
 50
180.0
 51
270.0
  0
LINE
  5
28C
330
1F
100
AcDbEntity
  8
0
  6
Continuous
 62
     1
100
AcDbLine
 10
271.643690167
 20
216.46
 30
0.0
 11
271.643690167
 21
218.46
 31
0.0
  0
LINE
  5
28D
330
1F
100
AcDbEntity
  8
0
  6
Continuous
 62
     1
100
AcDbLine
 10
271.643690167
 20
217.46
 30
0.0
 11
272.843690167
 21
218.66
 31
0.0
  0
LINE
  5
28E
330
1F
100
AcDbEntity
  8
0
  6
Continuous
 62
     1
100
AcDbLine
 10
271.643690167
 20
217.46
 30
0.0
 11
272.843690167
 21
216.26
 31
0.0
  0
LINE
  5
28F
330
1F
100
AcDbEntity
  8
0
  6
Continuous
 62
     1
100
AcDbLine
 10
273.063690167
 20
213.61
 30
0.0
 11
273.063690167
 21
214.61
 31
0.0
  0
ARC
  5
290
330
1F
100
AcDbEntity
  8
0
  6
Continuous
 62
     1
100
AcDbCircle
 10
275.663690167
 20
220.41
 30
0.0
 40
0.8
100
AcDbArc
 50
0.0
 51
90.0
  0
LINE
  5
291
330
1F
100
AcDbEntity
  8
0
  6
Continuous
 62
     1
100
AcDbLine
 10
275.663690167
 20
221.21
 30
0.0
 11
275.663690167
 21
221.21
 31
0.0
  0
LINE
  5
292
330
1F
100
AcDbEntity
  8
0
  6
Continuous
 62
     1
100
AcDbLine
 10
274.863690167
 20
215.71
 30
0.0
 11
274.863690167
 21
220.41
 31
0.0
  0
ARC
  5
293
330
1F
100
AcDbEntity
  8
0
  6
Continuous
 62
     1
100
AcDbCircle
 10
275.663690167
 20
220.41
 30
0.0
 40
0.8
100
AcDbArc
 50
90.0
 51
180.0
  0
LINE
  5
294
330
1F
100
AcDbEntity
  8
0
  6
Continuous
 62
     1
100
AcDbLine
 10
276.463690167
 20
220.41
 30
0.0
 11
276.463690167
 21
215.004061623
 31
0.0
  0
ARC
  5
295
330
1F
100
AcDbEntity
  8
0
  6
Continuous
 62
     1
100
AcDbCircle
 10
275.663690167
 20
215.004061623
 30
0.0
 40
0.8
100
AcDbArc
 50
319.635463427
 51
0.0
  0
LINE
  5
296
330
1F
100
AcDbEntity
  8
0
  6
Continuous
 62
     1
100
AcDbLine
 10
273.063690167
 20
210.415938377
 30
0.0
 11
273.063690167
 21
181.71
 31
0.0
  0
LINE
  5
297
330
1F
100
AcDbEntity
  8
0
  6
Continuous
 62
     1
100
AcDbLine
 10
276.273241622
 20
214.485942887
 30
0.0
 11
273.254138713
 21
210.934057113
 31
0.0
  0
ARC
  5
298
330
1F
100
AcDbEntity
  8
0
  6
Continuous
 62
     1
100
AcDbCircle
 10
273.863690167
 20
210.415938377
 30
0.0
 40
0.8
100
AcDbArc
 50
139.635463427
 51
180.0
  0
LINE
  5
299
330
1F
100
AcDbEntity
  8
0
  6
Continuous
 62
     1
100
AcDbLine
 10
271.654138713
 20
211.934057113
 30
0.0
 11
273.784190167
 21
214.44
 31
0.0
  0
ARC
  5
29A
330
1F
100
AcDbEntity
  8
0
  6
Continuous
 62
     1
100
AcDbCircle
 10
272.263690167
 20
211.415938377
 30
0.0
 40
0.8
100
AcDbArc
 50
139.635463427
 51
180.0
  0
LINE
  5
29B
330
1F
100
AcDbEntity
  8
0
  6
Continuous
 62
     1
100
AcDbLine
 10
274.663690167
 20
181.71
 30
0.0
 11
274.663690167
 21
150.81
 31
0.0
  0
LWPOLYLINE
  5
29D
330
1F
100
AcDbEntity
  8
0
  6
Continuous
 62
     1
100
AcDbPolyline
 90
     4
 70
   129
 43
0.0
 10
274.843690167
 20
141.96
 10
274.843690167
 20
149.96
 10
274.343690167
 20
149.96
 10
274.343690167
 20
141.96
  0
LINE
  5
29E
330
1F
100
AcDbEntity
  8
0
  6
Continuous
 62
     1
100
AcDbLine
 10
273.643690167
 20
148.96
 30
0.0
 11
274.343690167
 21
148.96
 31
0.0
  0
LWPOLYLINE
  5
2A0
330
1F
100
AcDbEntity
  8
0
  6
Continuous
 62
     1
100
AcDbPolyline
 90
     3
 70
   128
 43
0.0
 10
274.343690167
 20
142.96
 10
273.643690167
 20
142.96
 10
273.643690167
 20
148.96
  0
LINE
  5
2A1
330
1F
100
AcDbEntity
  8
0
  6
Continuous
 62
     1
100
AcDbLine
 10
274.343690167
 20
146.36
 30
0.0
 11
273.643690167
 21
145.56
 31
0.0
  0
ARC
  5
2A2
330
1F
100
AcDbEntity
  8
0
  6
Continuous
 62
     1
100
AcDbCircle
 10
273.643690167
 20
144.96
 30
0.0
 40
2.0
100
AcDbArc
 50
180.0
 51
270.0
  0
ARC
  5
2A3
330
1F
100
AcDbEntity
  8
0
  6
Continuous
 62
     1
100
AcDbCircle
 10
273.643690167
 20
146.96
 30
0.0
 40
2.0
100
AcDbArc
 50
90.0
 51
180.0
  0
LINE
  5
2A4
330
1F
100
AcDbEntity
  8
0
  6
Continuous
 62
     1
100
AcDbLine
 10
271.643690167
 20
146.96
 30
0.0
 11
271.643690167
 21
144.96
 31
0.0
  0
LINE
  5
2A5
330
1F
100
AcDbEntity
  8
0
  6
Continuous
 62
     1
100
AcDbLine
 10
271.643690167
 20
145.96
 30
0.0
 11
272.843690167
 21
144.76
 31
0.0
  0
LINE
  5
2A6
330
1F
100
AcDbEntity
  8
0
  6
Continuous
 62
     1
100
AcDbLine
 10
271.643690167
 20
145.96
 30
0.0
 11
272.843690167
 21
147.16
 31
0.0
  0
LINE
  5
2A7
330
1F
100
AcDbEntity
  8
0
  6
Continuous
 62
     1
100
AcDbLine
 10
273.063690167
 20
149.81
 30
0.0
 11
273.063690167
 21
148.81
 31
0.0
  0
ARC
  5
2A8
330
1F
100
AcDbEntity
  8
0
  6
Continuous
 62
     1
100
AcDbCircle
 10
275.663690167
 20
143.01
 30
0.0
 40
0.8
100
AcDbArc
 50
270.0
 51
0.0
  0
LINE
  5
2A9
330
1F
100
AcDbEntity
  8
0
  6
Continuous
 62
     1
100
AcDbLine
 10
275.663690167
 20
142.21
 30
0.0
 11
275.663690167
 21
142.21
 31
0.0
  0
LINE
  5
2AA
330
1F
100
AcDbEntity
  8
0
  6
Continuous
 62
     1
100
AcDbLine
 10
274.863690167
 20
147.71
 30
0.0
 11
274.863690167
 21
143.01
 31
0.0
  0
ARC
  5
2AB
330
1F
100
AcDbEntity
  8
0
  6
Continuous
 62
     1
100
AcDbCircle
 10
275.663690167
 20
143.01
 30
0.0
 40
0.8
100
AcDbArc
 50
180.0
 51
270.0
  0
LINE
  5
2AC
330
1F
100
AcDbEntity
  8
0
  6
Continuous
 62
     1
100
AcDbLine
 10
276.463690167
 20
143.01
 30
0.0
 11
276.463690167
 21
148.415938377
 31
0.0
  0
ARC
  5
2AD
330
1F
100
AcDbEntity
  8
0
  6
Continuous
 62
     1
100
AcDbCircle
 10
275.663690167
 20
148.415938377
 30
0.0
 40
0.8
100
AcDbArc
 50
0.0
 51
40.364536573
  0
LINE
  5
2AE
330
1F
100
AcDbEntity
  8
0
  6
Continuous
 62
     1
100
AcDbLine
 10
273.063690167
 20
153.004061623
 30
0.0
 11
273.063690167
 21
181.71
 31
0.0
  0
LINE
  5
2AF
330
1F
100
AcDbEntity
  8
0
  6
Continuous
 62
     1
100
AcDbLine
 10
276.273241622
 20
148.934057113
 30
0.0
 11
273.254138713
 21
152.485942887
 31
0.0
  0
ARC
  5
2B0
330
1F
100
AcDbEntity
  8
0
  6
Continuous
 62
     1
100
AcDbCircle
 10
273.863690167
 20
153.004061623
 30
0.0
 40
0.8
100
AcDbArc
 50
180.0
 51
220.364536573
  0
LINE
  5
2B1
330
1F
100
AcDbEntity
  8
0
  6
Continuous
 62
     1
100
AcDbLine
 10
271.654138713
 20
151.485942887
 30
0.0
 11
273.784190167
 21
148.98
 31
0.0
  0
ARC
  5
2B2
330
1F
100
AcDbEntity
  8
0
  6
Continuous
 62
     1
100
AcDbCircle
 10
272.263690167
 20
152.004061623
 30
0.0
 40
0.8
100
AcDbArc
 50
180.0
 51
220.364536573
  0
LINE
  5
2B3
330
1F
100
AcDbEntity
  8
0
  6
Continuous
 62
     1
100
AcDbLine
 10
271.463690167
 20
179.21
 30
0.0
 11
271.463690167
 21
152.004061623
 31
0.0
  0
ARC
  5
2B4
330
1F
100
AcDbEntity
  8
0
  6
Continuous
 62
     1
100
AcDbCircle
 10
272.263690167
 20
179.21
 30
0.0
 40
0.8
100
AcDbArc
 50
90.0
 51
180.0
  0
LINE
  5
2B5
330
1F
100
AcDbEntity
  8
0
  6
Continuous
 62
     1
100
AcDbLine
 10
271.463690167
 20
184.21
 30
0.0
 11
271.463690167
 21
211.415938377
 31
0.0
  0
LWPOLYLINE
  5
2B7
330
1F
100
AcDbEntity
  8
0
  6
Continuous
 62
     1
100
AcDbPolyline
 90
     3
 70
   128
 43
0.0
 10
271.463690167
 20
184.21
 42
0.414213562
 10
272.263690167
 20
183.41
 42
0.0
 10
272.263690167
 20
183.41
 42
0.0
  0
LINE
  5
2B8
330
1F
100
AcDbEntity
  8
0
  6
Continuous
 62
     1
100
AcDbLine
 10
273.063690167
 20
184.21
 30
0.0
 11
273.063690167
 21
184.41
 31
0.0
  0
ARC
  5
2B9
330
1F
100
AcDbEntity
  8
0
  6
Continuous
 62
     1
100
AcDbCircle
 10
272.263690167
 20
184.21
 30
0.0
 40
0.8
100
AcDbArc
 50
270.0
 51
0.0
  0
LINE
  5
2BA
330
1F
100
AcDbEntity
  8
0
  6
Continuous
 62
     1
100
AcDbLine
 10
272.263690167
 20
180.01
 30
0.0
 11
272.263690167
 21
180.01
 31
0.0
  0
LINE
  5
2BB
330
1F
100
AcDbEntity
  8
0
  6
Continuous
 62
     1
100
AcDbLine
 10
273.063690167
 20
179.21
 30
0.0
 11
273.063690167
 21
179.01
 31
0.0
  0
ARC
  5
2BC
330
1F
100
AcDbEntity
  8
0
  6
Continuous
 62
     1
100
AcDbCircle
 10
272.263690167
 20
179.21
 30
0.0
 40
0.8
100
AcDbArc
 50
0.0
 51
90.0
  0
LINE
  5
2BD
330
1F
100
AcDbEntity
  8
0
  6
Continuous
 62
     1
100
AcDbLine
 10
274.663690167
 20
181.71
 30
0.0
 11
274.663690167
 21
212.61
 31
0.0
  0
LWPOLYLINE
  5
2BF
330
1F
100
AcDbEntity
  8
0
  6
Continuous
 62
     1
100
AcDbPolyline
 90
     4
 70
   129
 43
0.0
 10
274.843690167
 20
221.46
 10
274.843690167
 20
213.46
 10
274.343690167
 20
213.46
 10
274.343690167
 20
221.46
  0
LINE
  5
2C0
330
1F
100
AcDbEntity
  8
0
  6
Continuous
 62
     1
100
AcDbLine
 10
273.643690167
 20
214.46
 30
0.0
 11
274.343690167
 21
214.46
 31
0.0
  0
LWPOLYLINE
  5
2C2
330
1F
100
AcDbEntity
  8
0
  6
Continuous
 62
     1
100
AcDbPolyline
 90
     3
 70
   128
 43
0.0
 10
274.343690167
 20
220.46
 10
273.643690167
 20
220.46
 10
273.643690167
 20
214.46
  0
LINE
  5
2C3
330
1F
100
AcDbEntity
  8
0
  6
Continuous
 62
     1
100
AcDbLine
 10
274.343690167
 20
217.06
 30
0.0
 11
273.643690167
 21
217.86
 31
0.0
  0
ARC
  5
2C4
330
1F
100
AcDbEntity
  8
0
  6
Continuous
 62
     1
100
AcDbCircle
 10
273.643690167
 20
218.46
 30
0.0
 40
2.0
100
AcDbArc
 50
90.0
 51
180.0
  0
ARC
  5
2C5
330
1F
100
AcDbEntity
  8
0
  6
Continuous
 62
     1
100
AcDbCircle
 10
273.643690167
 20
216.46
 30
0.0
 40
2.0
100
AcDbArc
 50
180.0
 51
270.0
  0
LINE
  5
2C6
330
1F
100
AcDbEntity
  8
0
  6
Continuous
 62
     1
100
AcDbLine
 10
271.643690167
 20
216.46
 30
0.0
 11
271.643690167
 21
218.46
 31
0.0
  0
LINE
  5
2C7
330
1F
100
AcDbEntity
  8
0
  6
Continuous
 62
     1
100
AcDbLine
 10
271.643690167
 20
217.46
 30
0.0
 11
272.843690167
 21
218.66
 31
0.0
  0
LINE
  5
2C8
330
1F
100
AcDbEntity
  8
0
  6
Continuous
 62
     1
100
AcDbLine
 10
271.643690167
 20
217.46
 30
0.0
 11
272.843690167
 21
216.26
 31
0.0
  0
LINE
  5
2C9
330
1F
100
AcDbEntity
  8
0
  6
Continuous
 62
     1
100
AcDbLine
 10
273.063690167
 20
213.61
 30
0.0
 11
273.063690167
 21
214.61
 31
0.0
  0
ARC
  5
2CA
330
1F
100
AcDbEntity
  8
0
  6
Continuous
 62
     1
100
AcDbCircle
 10
275.663690167
 20
220.41
 30
0.0
 40
0.8
100
AcDbArc
 50
0.0
 51
90.0
  0
LINE
  5
2CB
330
1F
100
AcDbEntity
  8
0
  6
Continuous
 62
     1
100
AcDbLine
 10
275.663690167
 20
221.21
 30
0.0
 11
275.663690167
 21
221.21
 31
0.0
  0
LINE
  5
2CC
330
1F
100
AcDbEntity
  8
0
  6
Continuous
 62
     1
100
AcDbLine
 10
274.863690167
 20
215.71
 30
0.0
 11
274.863690167
 21
220.41
 31
0.0
  0
ARC
  5
2CD
330
1F
100
AcDbEntity
  8
0
  6
Continuous
 62
     1
100
AcDbCircle
 10
275.663690167
 20
220.41
 30
0.0
 40
0.8
100
AcDbArc
 50
90.0
 51
180.0
  0
LINE
  5
2CE
330
1F
100
AcDbEntity
  8
0
  6
Continuous
 62
     1
100
AcDbLine
 10
276.463690167
 20
220.41
 30
0.0
 11
276.463690167
 21
215.004061623
 31
0.0
  0
ARC
  5
2CF
330
1F
100
AcDbEntity
  8
0
  6
Continuous
 62
     1
100
AcDbCircle
 10
275.663690167
 20
215.004061623
 30
0.0
 40
0.8
100
AcDbArc
 50
319.635463427
 51
0.0
  0
LINE
  5
2D0
330
1F
100
AcDbEntity
  8
0
  6
Continuous
 62
     1
100
AcDbLine
 10
273.063690167
 20
210.415938377
 30
0.0
 11
273.063690167
 21
181.71
 31
0.0
  0
LINE
  5
2D1
330
1F
100
AcDbEntity
  8
0
  6
Continuous
 62
     1
100
AcDbLine
 10
276.273241622
 20
214.485942887
 30
0.0
 11
273.254138713
 21
210.934057113
 31
0.0
  0
ARC
  5
2D2
330
1F
100
AcDbEntity
  8
0
  6
Continuous
 62
     1
100
AcDbCircle
 10
273.863690167
 20
210.415938377
 30
0.0
 40
0.8
100
AcDbArc
 50
139.635463427
 51
180.0
  0
LINE
  5
2D3
330
1F
100
AcDbEntity
  8
0
  6
Continuous
 62
     1
100
AcDbLine
 10
271.654138713
 20
211.934057113
 30
0.0
 11
273.784190167
 21
214.44
 31
0.0
  0
ARC
  5
2D4
330
1F
100
AcDbEntity
  8
0
  6
Continuous
 62
     1
100
AcDbCircle
 10
272.263690167
 20
211.415938377
 30
0.0
 40
0.8
100
AcDbArc
 50
139.635463427
 51
180.0
  0
LINE
  5
2D5
330
1F
100
AcDbEntity
  8
0
  6
Continuous
 62
     1
100
AcDbLine
 10
274.663690167
 20
181.71
 30
0.0
 11
274.663690167
 21
150.81
 31
0.0
  0
LWPOLYLINE
  5
2D7
330
1F
100
AcDbEntity
  8
0
  6
Continuous
 62
     1
100
AcDbPolyline
 90
     4
 70
   129
 43
0.0
 10
274.843690167
 20
141.96
 10
274.843690167
 20
149.96
 10
274.343690167
 20
149.96
 10
274.343690167
 20
141.96
  0
LINE
  5
2D8
330
1F
100
AcDbEntity
  8
0
  6
Continuous
 62
     1
100
AcDbLine
 10
273.643690167
 20
148.96
 30
0.0
 11
274.343690167
 21
148.96
 31
0.0
  0
LWPOLYLINE
  5
2DA
330
1F
100
AcDbEntity
  8
0
  6
Continuous
 62
     1
100
AcDbPolyline
 90
     3
 70
   128
 43
0.0
 10
274.343690167
 20
142.96
 10
273.643690167
 20
142.96
 10
273.643690167
 20
148.96
  0
LINE
  5
2DB
330
1F
100
AcDbEntity
  8
0
  6
Continuous
 62
     1
100
AcDbLine
 10
274.343690167
 20
146.36
 30
0.0
 11
273.643690167
 21
145.56
 31
0.0
  0
ARC
  5
2DC
330
1F
100
AcDbEntity
  8
0
  6
Continuous
 62
     1
100
AcDbCircle
 10
273.643690167
 20
144.96
 30
0.0
 40
2.0
100
AcDbArc
 50
180.0
 51
270.0
  0
ARC
  5
2DD
330
1F
100
AcDbEntity
  8
0
  6
Continuous
 62
     1
100
AcDbCircle
 10
273.643690167
 20
146.96
 30
0.0
 40
2.0
100
AcDbArc
 50
90.0
 51
180.0
  0
LINE
  5
2DE
330
1F
100
AcDbEntity
  8
0
  6
Continuous
 62
     1
100
AcDbLine
 10
271.643690167
 20
146.96
 30
0.0
 11
271.643690167
 21
144.96
 31
0.0
  0
LINE
  5
2DF
330
1F
100
AcDbEntity
  8
0
  6
Continuous
 62
     1
100
AcDbLine
 10
271.643690167
 20
145.96
 30
0.0
 11
272.843690167
 21
144.76
 31
0.0
  0
LINE
  5
2E0
330
1F
100
AcDbEntity
  8
0
  6
Continuous
 62
     1
100
AcDbLine
 10
271.643690167
 20
145.96
 30
0.0
 11
272.843690167
 21
147.16
 31
0.0
  0
LINE
  5
2E1
330
1F
100
AcDbEntity
  8
0
  6
Continuous
 62
     1
100
AcDbLine
 10
273.063690167
 20
149.81
 30
0.0
 11
273.063690167
 21
148.81
 31
0.0
  0
ARC
  5
2E2
330
1F
100
AcDbEntity
  8
0
  6
Continuous
 62
     1
100
AcDbCircle
 10
275.663690167
 20
143.01
 30
0.0
 40
0.8
100
AcDbArc
 50
270.0
 51
0.0
  0
LINE
  5
2E3
330
1F
100
AcDbEntity
  8
0
  6
Continuous
 62
     1
100
AcDbLine
 10
275.663690167
 20
142.21
 30
0.0
 11
275.663690167
 21
142.21
 31
0.0
  0
LINE
  5
2E4
330
1F
100
AcDbEntity
  8
0
  6
Continuous
 62
     1
100
AcDbLine
 10
274.863690167
 20
147.71
 30
0.0
 11
274.863690167
 21
143.01
 31
0.0
  0
ARC
  5
2E5
330
1F
100
AcDbEntity
  8
0
  6
Continuous
 62
     1
100
AcDbCircle
 10
275.663690167
 20
143.01
 30
0.0
 40
0.8
100
AcDbArc
 50
180.0
 51
270.0
  0
LINE
  5
2E6
330
1F
100
AcDbEntity
  8
0
  6
Continuous
 62
     1
100
AcDbLine
 10
276.463690167
 20
143.01
 30
0.0
 11
276.463690167
 21
148.415938377
 31
0.0
  0
ARC
  5
2E7
330
1F
100
AcDbEntity
  8
0
  6
Continuous
 62
     1
100
AcDbCircle
 10
275.663690167
 20
148.415938377
 30
0.0
 40
0.8
100
AcDbArc
 50
0.0
 51
40.364536573
  0
LINE
  5
2E8
330
1F
100
AcDbEntity
  8
0
  6
Continuous
 62
     1
100
AcDbLine
 10
273.063690167
 20
153.004061623
 30
0.0
 11
273.063690167
 21
181.71
 31
0.0
  0
LINE
  5
2E9
330
1F
100
AcDbEntity
  8
0
  6
Continuous
 62
     1
100
AcDbLine
 10
276.273241622
 20
148.934057113
 30
0.0
 11
273.254138713
 21
152.485942887
 31
0.0
  0
ARC
  5
2EA
330
1F
100
AcDbEntity
  8
0
  6
Continuous
 62
     1
100
AcDbCircle
 10
273.863690167
 20
153.004061623
 30
0.0
 40
0.8
100
AcDbArc
 50
180.0
 51
220.364536573
  0
LINE
  5
2EB
330
1F
100
AcDbEntity
  8
0
  6
Continuous
 62
     1
100
AcDbLine
 10
271.654138713
 20
151.485942887
 30
0.0
 11
273.784190167
 21
148.98
 31
0.0
  0
ARC
  5
2EC
330
1F
100
AcDbEntity
  8
0
  6
Continuous
 62
     1
100
AcDbCircle
 10
272.263690167
 20
152.004061623
 30
0.0
 40
0.8
100
AcDbArc
 50
180.0
 51
220.364536573
  0
LINE
  5
2ED
330
1F
100
AcDbEntity
  8
0
  6
Continuous
 62
     1
100
AcDbLine
 10
271.463690167
 20
179.21
 30
0.0
 11
271.463690167
 21
152.004061623
 31
0.0
  0
ARC
  5
2EE
330
1F
100
AcDbEntity
  8
0
  6
Continuous
 62
     1
100
AcDbCircle
 10
272.263690167
 20
179.21
 30
0.0
 40
0.8
100
AcDbArc
 50
90.0
 51
180.0
  0
LINE
  5
2EF
330
1F
100
AcDbEntity
  8
0
  6
Continuous
 62
     1
100
AcDbLine
 10
271.463690167
 20
184.21
 30
0.0
 11
271.463690167
 21
211.415938377
 31
0.0
  0
LWPOLYLINE
  5
2F1
330
1F
100
AcDbEntity
  8
0
  6
Continuous
 62
     1
100
AcDbPolyline
 90
     3
 70
   128
 43
0.0
 10
271.463690167
 20
184.21
 42
0.414213562
 10
272.263690167
 20
183.41
 42
0.0
 10
272.263690167
 20
183.41
 42
0.0
  0
LINE
  5
2F2
330
1F
100
AcDbEntity
  8
0
  6
Continuous
 62
     1
100
AcDbLine
 10
273.063690167
 20
184.21
 30
0.0
 11
273.063690167
 21
184.41
 31
0.0
  0
ARC
  5
2F3
330
1F
100
AcDbEntity
  8
0
  6
Continuous
 62
     1
100
AcDbCircle
 10
272.263690167
 20
184.21
 30
0.0
 40
0.8
100
AcDbArc
 50
270.0
 51
0.0
  0
LINE
  5
2F4
330
1F
100
AcDbEntity
  8
0
  6
Continuous
 62
     1
100
AcDbLine
 10
272.263690167
 20
180.01
 30
0.0
 11
272.263690167
 21
180.01
 31
0.0
  0
LINE
  5
2F5
330
1F
100
AcDbEntity
  8
0
  6
Continuous
 62
     1
100
AcDbLine
 10
273.063690167
 20
179.21
 30
0.0
 11
273.063690167
 21
179.01
 31
0.0
  0
ARC
  5
2F6
330
1F
100
AcDbEntity
  8
0
  6
Continuous
 62
     1
100
AcDbCircle
 10
272.263690167
 20
179.21
 30
0.0
 40
0.8
100
AcDbArc
 50
0.0
 51
90.0
  0
LINE
  5
2F7
330
1F
100
AcDbEntity
  8
0
  6
Continuous
 62
     1
100
AcDbLine
 10
274.663690167
 20
410.0
 30
0.0
 11
274.663690167
 21
440.9
 31
0.0
  0
LWPOLYLINE
  5
2F9
330
1F
100
AcDbEntity
  8
0
  6
Continuous
 62
     1
100
AcDbPolyline
 90
     4
 70
   129
 43
0.0
 10
274.843690167
 20
449.75
 10
274.843690167
 20
441.75
 10
274.343690167
 20
441.75
 10
274.343690167
 20
449.75
  0
LINE
  5
2FA
330
1F
100
AcDbEntity
  8
0
  6
Continuous
 62
     1
100
AcDbLine
 10
273.643690167
 20
442.75
 30
0.0
 11
274.343690167
 21
442.75
 31
0.0
  0
LWPOLYLINE
  5
2FC
330
1F
100
AcDbEntity
  8
0
  6
Continuous
 62
     1
100
AcDbPolyline
 90
     3
 70
   128
 43
0.0
 10
274.343690167
 20
448.75
 10
273.643690167
 20
448.75
 10
273.643690167
 20
442.75
  0
LINE
  5
2FD
330
1F
100
AcDbEntity
  8
0
  6
Continuous
 62
     1
100
AcDbLine
 10
274.343690167
 20
445.35
 30
0.0
 11
273.643690167
 21
446.15
 31
0.0
  0
ARC
  5
2FE
330
1F
100
AcDbEntity
  8
0
  6
Continuous
 62
     1
100
AcDbCircle
 10
273.643690167
 20
446.75
 30
0.0
 40
2.0
100
AcDbArc
 50
90.0
 51
180.0
  0
ARC
  5
2FF
330
1F
100
AcDbEntity
  8
0
  6
Continuous
 62
     1
100
AcDbCircle
 10
273.643690167
 20
444.75
 30
0.0
 40
2.0
100
AcDbArc
 50
180.0
 51
270.0
  0
LINE
  5
300
330
1F
100
AcDbEntity
  8
0
  6
Continuous
 62
     1
100
AcDbLine
 10
271.643690167
 20
444.75
 30
0.0
 11
271.643690167
 21
446.75
 31
0.0
  0
LINE
  5
301
330
1F
100
AcDbEntity
  8
0
  6
Continuous
 62
     1
100
AcDbLine
 10
271.643690167
 20
445.75
 30
0.0
 11
272.843690167
 21
446.95
 31
0.0
  0
LINE
  5
302
330
1F
100
AcDbEntity
  8
0
  6
Continuous
 62
     1
100
AcDbLine
 10
271.643690167
 20
445.75
 30
0.0
 11
272.843690167
 21
444.55
 31
0.0
  0
LINE
  5
303
330
1F
100
AcDbEntity
  8
0
  6
Continuous
 62
     1
100
AcDbLine
 10
273.063690167
 20
441.9
 30
0.0
 11
273.063690167
 21
442.9
 31
0.0
  0
ARC
  5
304
330
1F
100
AcDbEntity
  8
0
  6
Continuous
 62
     1
100
AcDbCircle
 10
275.663690167
 20
448.7
 30
0.0
 40
0.8
100
AcDbArc
 50
0.0
 51
90.0
  0
LINE
  5
305
330
1F
100
AcDbEntity
  8
0
  6
Continuous
 62
     1
100
AcDbLine
 10
275.663690167
 20
449.5
 30
0.0
 11
275.663690167
 21
449.5
 31
0.0
  0
LINE
  5
306
330
1F
100
AcDbEntity
  8
0
  6
Continuous
 62
     1
100
AcDbLine
 10
274.863690167
 20
444.0
 30
0.0
 11
274.863690167
 21
448.7
 31
0.0
  0
ARC
  5
307
330
1F
100
AcDbEntity
  8
0
  6
Continuous
 62
     1
100
AcDbCircle
 10
275.663690167
 20
448.7
 30
0.0
 40
0.8
100
AcDbArc
 50
90.0
 51
180.0
  0
LINE
  5
308
330
1F
100
AcDbEntity
  8
0
  6
Continuous
 62
     1
100
AcDbLine
 10
276.463690167
 20
448.7
 30
0.0
 11
276.463690167
 21
443.294061623
 31
0.0
  0
ARC
  5
309
330
1F
100
AcDbEntity
  8
0
  6
Continuous
 62
     1
100
AcDbCircle
 10
275.663690167
 20
443.294061623
 30
0.0
 40
0.8
100
AcDbArc
 50
319.635463427
 51
0.0
  0
LINE
  5
30A
330
1F
100
AcDbEntity
  8
0
  6
Continuous
 62
     1
100
AcDbLine
 10
273.063690167
 20
438.705938377
 30
0.0
 11
273.063690167
 21
410.0
 31
0.0
  0
LINE
  5
30B
330
1F
100
AcDbEntity
  8
0
  6
Continuous
 62
     1
100
AcDbLine
 10
276.273241622
 20
442.775942887
 30
0.0
 11
273.254138713
 21
439.224057113
 31
0.0
  0
ARC
  5
30C
330
1F
100
AcDbEntity
  8
0
  6
Continuous
 62
     1
100
AcDbCircle
 10
273.863690167
 20
438.705938377
 30
0.0
 40
0.8
100
AcDbArc
 50
139.635463427
 51
180.0
  0
LINE
  5
30D
330
1F
100
AcDbEntity
  8
0
  6
Continuous
 62
     1
100
AcDbLine
 10
271.654138713
 20
440.224057113
 30
0.0
 11
273.784190167
 21
442.73
 31
0.0
  0
ARC
  5
30E
330
1F
100
AcDbEntity
  8
0
  6
Continuous
 62
     1
100
AcDbCircle
 10
272.263690167
 20
439.705938377
 30
0.0
 40
0.8
100
AcDbArc
 50
139.635463427
 51
180.0
  0
LINE
  5
30F
330
1F
100
AcDbEntity
  8
0
  6
Continuous
 62
     1
100
AcDbLine
 10
274.663690167
 20
410.0
 30
0.0
 11
274.663690167
 21
379.1
 31
0.0
  0
LWPOLYLINE
  5
311
330
1F
100
AcDbEntity
  8
0
  6
Continuous
 62
     1
100
AcDbPolyline
 90
     4
 70
   129
 43
0.0
 10
274.843690167
 20
370.25
 10
274.843690167
 20
378.25
 10
274.343690167
 20
378.25
 10
274.343690167
 20
370.25
  0
LINE
  5
312
330
1F
100
AcDbEntity
  8
0
  6
Continuous
 62
     1
100
AcDbLine
 10
273.643690167
 20
377.25
 30
0.0
 11
274.343690167
 21
377.25
 31
0.0
  0
LWPOLYLINE
  5
314
330
1F
100
AcDbEntity
  8
0
  6
Continuous
 62
     1
100
AcDbPolyline
 90
     3
 70
   128
 43
0.0
 10
274.343690167
 20
371.25
 10
273.643690167
 20
371.25
 10
273.643690167
 20
377.25
  0
LINE
  5
315
330
1F
100
AcDbEntity
  8
0
  6
Continuous
 62
     1
100
AcDbLine
 10
274.343690167
 20
374.65
 30
0.0
 11
273.643690167
 21
373.85
 31
0.0
  0
ARC
  5
316
330
1F
100
AcDbEntity
  8
0
  6
Continuous
 62
     1
100
AcDbCircle
 10
273.643690167
 20
373.25
 30
0.0
 40
2.0
100
AcDbArc
 50
180.0
 51
270.0
  0
ARC
  5
317
330
1F
100
AcDbEntity
  8
0
  6
Continuous
 62
     1
100
AcDbCircle
 10
273.643690167
 20
375.25
 30
0.0
 40
2.0
100
AcDbArc
 50
90.0
 51
180.0
  0
LINE
  5
318
330
1F
100
AcDbEntity
  8
0
  6
Continuous
 62
     1
100
AcDbLine
 10
271.643690167
 20
375.25
 30
0.0
 11
271.643690167
 21
373.25
 31
0.0
  0
LINE
  5
319
330
1F
100
AcDbEntity
  8
0
  6
Continuous
 62
     1
100
AcDbLine
 10
271.643690167
 20
374.25
 30
0.0
 11
272.843690167
 21
373.05
 31
0.0
  0
LINE
  5
31A
330
1F
100
AcDbEntity
  8
0
  6
Continuous
 62
     1
100
AcDbLine
 10
271.643690167
 20
374.25
 30
0.0
 11
272.843690167
 21
375.45
 31
0.0
  0
LINE
  5
31B
330
1F
100
AcDbEntity
  8
0
  6
Continuous
 62
     1
100
AcDbLine
 10
273.063690167
 20
378.1
 30
0.0
 11
273.063690167
 21
377.1
 31
0.0
  0
ARC
  5
31C
330
1F
100
AcDbEntity
  8
0
  6
Continuous
 62
     1
100
AcDbCircle
 10
275.663690167
 20
371.3
 30
0.0
 40
0.8
100
AcDbArc
 50
270.0
 51
0.0
  0
LINE
  5
31D
330
1F
100
AcDbEntity
  8
0
  6
Continuous
 62
     1
100
AcDbLine
 10
275.663690167
 20
370.5
 30
0.0
 11
275.663690167
 21
370.5
 31
0.0
  0
LINE
  5
31E
330
1F
100
AcDbEntity
  8
0
  6
Continuous
 62
     1
100
AcDbLine
 10
274.863690167
 20
376.0
 30
0.0
 11
274.863690167
 21
371.3
 31
0.0
  0
ARC
  5
31F
330
1F
100
AcDbEntity
  8
0
  6
Continuous
 62
     1
100
AcDbCircle
 10
275.663690167
 20
371.3
 30
0.0
 40
0.8
100
AcDbArc
 50
180.0
 51
270.0
  0
LINE
  5
320
330
1F
100
AcDbEntity
  8
0
  6
Continuous
 62
     1
100
AcDbLine
 10
276.463690167
 20
371.3
 30
0.0
 11
276.463690167
 21
376.705938377
 31
0.0
  0
ARC
  5
321
330
1F
100
AcDbEntity
  8
0
  6
Continuous
 62
     1
100
AcDbCircle
 10
275.663690167
 20
376.705938377
 30
0.0
 40
0.8
100
AcDbArc
 50
0.0
 51
40.364536573
  0
LINE
  5
322
330
1F
100
AcDbEntity
  8
0
  6
Continuous
 62
     1
100
AcDbLine
 10
273.063690167
 20
381.294061623
 30
0.0
 11
273.063690167
 21
410.0
 31
0.0
  0
LINE
  5
323
330
1F
100
AcDbEntity
  8
0
  6
Continuous
 62
     1
100
AcDbLine
 10
276.273241622
 20
377.224057113
 30
0.0
 11
273.254138713
 21
380.775942887
 31
0.0
  0
ARC
  5
324
330
1F
100
AcDbEntity
  8
0
  6
Continuous
 62
     1
100
AcDbCircle
 10
273.863690167
 20
381.294061623
 30
0.0
 40
0.8
100
AcDbArc
 50
180.0
 51
220.364536573
  0
LINE
  5
325
330
1F
100
AcDbEntity
  8
0
  6
Continuous
 62
     1
100
AcDbLine
 10
271.654138713
 20
379.775942887
 30
0.0
 11
273.784190167
 21
377.27
 31
0.0
  0
ARC
  5
326
330
1F
100
AcDbEntity
  8
0
  6
Continuous
 62
     1
100
AcDbCircle
 10
272.263690167
 20
380.294061623
 30
0.0
 40
0.8
100
AcDbArc
 50
180.0
 51
220.364536573
  0
LINE
  5
327
330
1F
100
AcDbEntity
  8
0
  6
Continuous
 62
     1
100
AcDbLine
 10
271.463690167
 20
407.5
 30
0.0
 11
271.463690167
 21
380.294061623
 31
0.0
  0
ARC
  5
328
330
1F
100
AcDbEntity
  8
0
  6
Continuous
 62
     1
100
AcDbCircle
 10
272.263690167
 20
407.5
 30
0.0
 40
0.8
100
AcDbArc
 50
90.0
 51
180.0
  0
LINE
  5
329
330
1F
100
AcDbEntity
  8
0
  6
Continuous
 62
     1
100
AcDbLine
 10
271.463690167
 20
412.5
 30
0.0
 11
271.463690167
 21
439.705938377
 31
0.0
  0
LWPOLYLINE
  5
32B
330
1F
100
AcDbEntity
  8
0
  6
Continuous
 62
     1
100
AcDbPolyline
 90
     3
 70
   128
 43
0.0
 10
271.463690167
 20
412.5
 42
0.414213562
 10
272.263690167
 20
411.7
 42
0.0
 10
272.263690167
 20
411.7
 42
0.0
  0
LINE
  5
32C
330
1F
100
AcDbEntity
  8
0
  6
Continuous
 62
     1
100
AcDbLine
 10
273.063690167
 20
412.5
 30
0.0
 11
273.063690167
 21
412.7
 31
0.0
  0
ARC
  5
32D
330
1F
100
AcDbEntity
  8
0
  6
Continuous
 62
     1
100
AcDbCircle
 10
272.263690167
 20
412.5
 30
0.0
 40
0.8
100
AcDbArc
 50
270.0
 51
0.0
  0
LINE
  5
32E
330
1F
100
AcDbEntity
  8
0
  6
Continuous
 62
     1
100
AcDbLine
 10
272.263690167
 20
408.3
 30
0.0
 11
272.263690167
 21
408.3
 31
0.0
  0
LINE
  5
32F
330
1F
100
AcDbEntity
  8
0
  6
Continuous
 62
     1
100
AcDbLine
 10
273.063690167
 20
407.5
 30
0.0
 11
273.063690167
 21
407.3
 31
0.0
  0
ARC
  5
330
330
1F
100
AcDbEntity
  8
0
  6
Continuous
 62
     1
100
AcDbCircle
 10
272.263690167
 20
407.5
 30
0.0
 40
0.8
100
AcDbArc
 50
0.0
 51
90.0
  0
LINE
  5
331
330
1F
100
AcDbEntity
  8
0
  6
Continuous
 62
     1
100
AcDbLine
 10
274.663690167
 20
410.0
 30
0.0
 11
274.663690167
 21
440.9
 31
0.0
  0
LWPOLYLINE
  5
333
330
1F
100
AcDbEntity
  8
0
  6
Continuous
 62
     1
100
AcDbPolyline
 90
     4
 70
   129
 43
0.0
 10
274.843690167
 20
449.75
 10
274.843690167
 20
441.75
 10
274.343690167
 20
441.75
 10
274.343690167
 20
449.75
  0
LINE
  5
334
330
1F
100
AcDbEntity
  8
0
  6
Continuous
 62
     1
100
AcDbLine
 10
273.643690167
 20
442.75
 30
0.0
 11
274.343690167
 21
442.75
 31
0.0
  0
LWPOLYLINE
  5
336
330
1F
100
AcDbEntity
  8
0
  6
Continuous
 62
     1
100
AcDbPolyline
 90
     3
 70
   128
 43
0.0
 10
274.343690167
 20
448.75
 10
273.643690167
 20
448.75
 10
273.643690167
 20
442.75
  0
LINE
  5
337
330
1F
100
AcDbEntity
  8
0
  6
Continuous
 62
     1
100
AcDbLine
 10
274.343690167
 20
445.35
 30
0.0
 11
273.643690167
 21
446.15
 31
0.0
  0
ARC
  5
338
330
1F
100
AcDbEntity
  8
0
  6
Continuous
 62
     1
100
AcDbCircle
 10
273.643690167
 20
446.75
 30
0.0
 40
2.0
100
AcDbArc
 50
90.0
 51
180.0
  0
ARC
  5
339
330
1F
100
AcDbEntity
  8
0
  6
Continuous
 62
     1
100
AcDbCircle
 10
273.643690167
 20
444.75
 30
0.0
 40
2.0
100
AcDbArc
 50
180.0
 51
270.0
  0
LINE
  5
33A
330
1F
100
AcDbEntity
  8
0
  6
Continuous
 62
     1
100
AcDbLine
 10
271.643690167
 20
444.75
 30
0.0
 11
271.643690167
 21
446.75
 31
0.0
  0
LINE
  5
33B
330
1F
100
AcDbEntity
  8
0
  6
Continuous
 62
     1
100
AcDbLine
 10
271.643690167
 20
445.75
 30
0.0
 11
272.843690167
 21
446.95
 31
0.0
  0
LINE
  5
33C
330
1F
100
AcDbEntity
  8
0
  6
Continuous
 62
     1
100
AcDbLine
 10
271.643690167
 20
445.75
 30
0.0
 11
272.843690167
 21
444.55
 31
0.0
  0
LINE
  5
33D
330
1F
100
AcDbEntity
  8
0
  6
Continuous
 62
     1
100
AcDbLine
 10
273.063690167
 20
441.9
 30
0.0
 11
273.063690167
 21
442.9
 31
0.0
  0
ARC
  5
33E
330
1F
100
AcDbEntity
  8
0
  6
Continuous
 62
     1
100
AcDbCircle
 10
275.663690167
 20
448.7
 30
0.0
 40
0.8
100
AcDbArc
 50
0.0
 51
90.0
  0
LINE
  5
33F
330
1F
100
AcDbEntity
  8
0
  6
Continuous
 62
     1
100
AcDbLine
 10
275.663690167
 20
449.5
 30
0.0
 11
275.663690167
 21
449.5
 31
0.0
  0
LINE
  5
340
330
1F
100
AcDbEntity
  8
0
  6
Continuous
 62
     1
100
AcDbLine
 10
274.863690167
 20
444.0
 30
0.0
 11
274.863690167
 21
448.7
 31
0.0
  0
ARC
  5
341
330
1F
100
AcDbEntity
  8
0
  6
Continuous
 62
     1
100
AcDbCircle
 10
275.663690167
 20
448.7
 30
0.0
 40
0.8
100
AcDbArc
 50
90.0
 51
180.0
  0
LINE
  5
342
330
1F
100
AcDbEntity
  8
0
  6
Continuous
 62
     1
100
AcDbLine
 10
276.463690167
 20
448.7
 30
0.0
 11
276.463690167
 21
443.294061623
 31
0.0
  0
ARC
  5
343
330
1F
100
AcDbEntity
  8
0
  6
Continuous
 62
     1
100
AcDbCircle
 10
275.663690167
 20
443.294061623
 30
0.0
 40
0.8
100
AcDbArc
 50
319.635463427
 51
0.0
  0
LINE
  5
344
330
1F
100
AcDbEntity
  8
0
  6
Continuous
 62
     1
100
AcDbLine
 10
273.063690167
 20
438.705938377
 30
0.0
 11
273.063690167
 21
410.0
 31
0.0
  0
LINE
  5
345
330
1F
100
AcDbEntity
  8
0
  6
Continuous
 62
     1
100
AcDbLine
 10
276.273241622
 20
442.775942887
 30
0.0
 11
273.254138713
 21
439.224057113
 31
0.0
  0
ARC
  5
346
330
1F
100
AcDbEntity
  8
0
  6
Continuous
 62
     1
100
AcDbCircle
 10
273.863690167
 20
438.705938377
 30
0.0
 40
0.8
100
AcDbArc
 50
139.635463427
 51
180.0
  0
LINE
  5
347
330
1F
100
AcDbEntity
  8
0
  6
Continuous
 62
     1
100
AcDbLine
 10
271.654138713
 20
440.224057113
 30
0.0
 11
273.784190167
 21
442.73
 31
0.0
  0
ARC
  5
348
330
1F
100
AcDbEntity
  8
0
  6
Continuous
 62
     1
100
AcDbCircle
 10
272.263690167
 20
439.705938377
 30
0.0
 40
0.8
100
AcDbArc
 50
139.635463427
 51
180.0
  0
LINE
  5
349
330
1F
100
AcDbEntity
  8
0
  6
Continuous
 62
     1
100
AcDbLine
 10
274.663690167
 20
410.0
 30
0.0
 11
274.663690167
 21
379.1
 31
0.0
  0
LWPOLYLINE
  5
34B
330
1F
100
AcDbEntity
  8
0
  6
Continuous
 62
     1
100
AcDbPolyline
 90
     4
 70
   129
 43
0.0
 10
274.843690167
 20
370.25
 10
274.843690167
 20
378.25
 10
274.343690167
 20
378.25
 10
274.343690167
 20
370.25
  0
LINE
  5
34C
330
1F
100
AcDbEntity
  8
0
  6
Continuous
 62
     1
100
AcDbLine
 10
273.643690167
 20
377.25
 30
0.0
 11
274.343690167
 21
377.25
 31
0.0
  0
LWPOLYLINE
  5
34E
330
1F
100
AcDbEntity
  8
0
  6
Continuous
 62
     1
100
AcDbPolyline
 90
     3
 70
   128
 43
0.0
 10
274.343690167
 20
371.25
 10
273.643690167
 20
371.25
 10
273.643690167
 20
377.25
  0
LINE
  5
34F
330
1F
100
AcDbEntity
  8
0
  6
Continuous
 62
     1
100
AcDbLine
 10
274.343690167
 20
374.65
 30
0.0
 11
273.643690167
 21
373.85
 31
0.0
  0
ARC
  5
350
330
1F
100
AcDbEntity
  8
0
  6
Continuous
 62
     1
100
AcDbCircle
 10
273.643690167
 20
373.25
 30
0.0
 40
2.0
100
AcDbArc
 50
180.0
 51
270.0
  0
ARC
  5
351
330
1F
100
AcDbEntity
  8
0
  6
Continuous
 62
     1
100
AcDbCircle
 10
273.643690167
 20
375.25
 30
0.0
 40
2.0
100
AcDbArc
 50
90.0
 51
180.0
  0
LINE
  5
352
330
1F
100
AcDbEntity
  8
0
  6
Continuous
 62
     1
100
AcDbLine
 10
271.643690167
 20
375.25
 30
0.0
 11
271.643690167
 21
373.25
 31
0.0
  0
LINE
  5
353
330
1F
100
AcDbEntity
  8
0
  6
Continuous
 62
     1
100
AcDbLine
 10
271.643690167
 20
374.25
 30
0.0
 11
272.843690167
 21
373.05
 31
0.0
  0
LINE
  5
354
330
1F
100
AcDbEntity
  8
0
  6
Continuous
 62
     1
100
AcDbLine
 10
271.643690167
 20
374.25
 30
0.0
 11
272.843690167
 21
375.45
 31
0.0
  0
LINE
  5
355
330
1F
100
AcDbEntity
  8
0
  6
Continuous
 62
     1
100
AcDbLine
 10
273.063690167
 20
378.1
 30
0.0
 11
273.063690167
 21
377.1
 31
0.0
  0
ARC
  5
356
330
1F
100
AcDbEntity
  8
0
  6
Continuous
 62
     1
100
AcDbCircle
 10
275.663690167
 20
371.3
 30
0.0
 40
0.8
100
AcDbArc
 50
270.0
 51
0.0
  0
LINE
  5
357
330
1F
100
AcDbEntity
  8
0
  6
Continuous
 62
     1
100
AcDbLine
 10
275.663690167
 20
370.5
 30
0.0
 11
275.663690167
 21
370.5
 31
0.0
  0
LINE
  5
358
330
1F
100
AcDbEntity
  8
0
  6
Continuous
 62
     1
100
AcDbLine
 10
274.863690167
 20
376.0
 30
0.0
 11
274.863690167
 21
371.3
 31
0.0
  0
ARC
  5
359
330
1F
100
AcDbEntity
  8
0
  6
Continuous
 62
     1
100
AcDbCircle
 10
275.663690167
 20
371.3
 30
0.0
 40
0.8
100
AcDbArc
 50
180.0
 51
270.0
  0
LINE
  5
35A
330
1F
100
AcDbEntity
  8
0
  6
Continuous
 62
     1
100
AcDbLine
 10
276.463690167
 20
371.3
 30
0.0
 11
276.463690167
 21
376.705938377
 31
0.0
  0
ARC
  5
35B
330
1F
100
AcDbEntity
  8
0
  6
Continuous
 62
     1
100
AcDbCircle
 10
275.663690167
 20
376.705938377
 30
0.0
 40
0.8
100
AcDbArc
 50
0.0
 51
40.364536573
  0
LINE
  5
35C
330
1F
100
AcDbEntity
  8
0
  6
Continuous
 62
     1
100
AcDbLine
 10
273.063690167
 20
381.294061623
 30
0.0
 11
273.063690167
 21
410.0
 31
0.0
  0
LINE
  5
35D
330
1F
100
AcDbEntity
  8
0
  6
Continuous
 62
     1
100
AcDbLine
 10
276.273241622
 20
377.224057113
 30
0.0
 11
273.254138713
 21
380.775942887
 31
0.0
  0
ARC
  5
35E
330
1F
100
AcDbEntity
  8
0
  6
Continuous
 62
     1
100
AcDbCircle
 10
273.863690167
 20
381.294061623
 30
0.0
 40
0.8
100
AcDbArc
 50
180.0
 51
220.364536573
  0
LINE
  5
35F
330
1F
100
AcDbEntity
  8
0
  6
Continuous
 62
     1
100
AcDbLine
 10
271.654138713
 20
379.775942887
 30
0.0
 11
273.784190167
 21
377.27
 31
0.0
  0
ARC
  5
360
330
1F
100
AcDbEntity
  8
0
  6
Continuous
 62
     1
100
AcDbCircle
 10
272.263690167
 20
380.294061623
 30
0.0
 40
0.8
100
AcDbArc
 50
180.0
 51
220.364536573
  0
LINE
  5
361
330
1F
100
AcDbEntity
  8
0
  6
Continuous
 62
     1
100
AcDbLine
 10
271.463690167
 20
407.5
 30
0.0
 11
271.463690167
 21
380.294061623
 31
0.0
  0
ARC
  5
362
330
1F
100
AcDbEntity
  8
0
  6
Continuous
 62
     1
100
AcDbCircle
 10
272.263690167
 20
407.5
 30
0.0
 40
0.8
100
AcDbArc
 50
90.0
 51
180.0
  0
LINE
  5
363
330
1F
100
AcDbEntity
  8
0
  6
Continuous
 62
     1
100
AcDbLine
 10
271.463690167
 20
412.5
 30
0.0
 11
271.463690167
 21
439.705938377
 31
0.0
  0
LWPOLYLINE
  5
365
330
1F
100
AcDbEntity
  8
0
  6
Continuous
 62
     1
100
AcDbPolyline
 90
     3
 70
   128
 43
0.0
 10
271.463690167
 20
412.5
 42
0.414213562
 10
272.263690167
 20
411.7
 42
0.0
 10
272.263690167
 20
411.7
 42
0.0
  0
LINE
  5
366
330
1F
100
AcDbEntity
  8
0
  6
Continuous
 62
     1
100
AcDbLine
 10
273.063690167
 20
412.5
 30
0.0
 11
273.063690167
 21
412.7
 31
0.0
  0
ARC
  5
367
330
1F
100
AcDbEntity
  8
0
  6
Continuous
 62
     1
100
AcDbCircle
 10
272.263690167
 20
412.5
 30
0.0
 40
0.8
100
AcDbArc
 50
270.0
 51
0.0
  0
LINE
  5
368
330
1F
100
AcDbEntity
  8
0
  6
Continuous
 62
     1
100
AcDbLine
 10
272.263690167
 20
408.3
 30
0.0
 11
272.263690167
 21
408.3
 31
0.0
  0
LINE
  5
369
330
1F
100
AcDbEntity
  8
0
  6
Continuous
 62
     1
100
AcDbLine
 10
273.063690167
 20
407.5
 30
0.0
 11
273.063690167
 21
407.3
 31
0.0
  0
ARC
  5
36A
330
1F
100
AcDbEntity
  8
0
  6
Continuous
 62
     1
100
AcDbCircle
 10
272.263690167
 20
407.5
 30
0.0
 40
0.8
100
AcDbArc
 50
0.0
 51
90.0
  0
LINE
  5
36B
330
1F
100
AcDbEntity
  8
0
  6
Continuous
 62
     1
100
AcDbLine
 10
274.663690167
 20
410.0
 30
0.0
 11
274.663690167
 21
440.9
 31
0.0
  0
LWPOLYLINE
  5
36D
330
1F
100
AcDbEntity
  8
0
  6
Continuous
 62
     1
100
AcDbPolyline
 90
     4
 70
   129
 43
0.0
 10
274.843690167
 20
449.75
 10
274.843690167
 20
441.75
 10
274.343690167
 20
441.75
 10
274.343690167
 20
449.75
  0
LINE
  5
36E
330
1F
100
AcDbEntity
  8
0
  6
Continuous
 62
     1
100
AcDbLine
 10
273.643690167
 20
442.75
 30
0.0
 11
274.343690167
 21
442.75
 31
0.0
  0
LWPOLYLINE
  5
370
330
1F
100
AcDbEntity
  8
0
  6
Continuous
 62
     1
100
AcDbPolyline
 90
     3
 70
   128
 43
0.0
 10
274.343690167
 20
448.75
 10
273.643690167
 20
448.75
 10
273.643690167
 20
442.75
  0
LINE
  5
371
330
1F
100
AcDbEntity
  8
0
  6
Continuous
 62
     1
100
AcDbLine
 10
274.343690167
 20
445.35
 30
0.0
 11
273.643690167
 21
446.15
 31
0.0
  0
ARC
  5
372
330
1F
100
AcDbEntity
  8
0
  6
Continuous
 62
     1
100
AcDbCircle
 10
273.643690167
 20
446.75
 30
0.0
 40
2.0
100
AcDbArc
 50
90.0
 51
180.0
  0
ARC
  5
373
330
1F
100
AcDbEntity
  8
0
  6
Continuous
 62
     1
100
AcDbCircle
 10
273.643690167
 20
444.75
 30
0.0
 40
2.0
100
AcDbArc
 50
180.0
 51
270.0
  0
LINE
  5
374
330
1F
100
AcDbEntity
  8
0
  6
Continuous
 62
     1
100
AcDbLine
 10
271.643690167
 20
444.75
 30
0.0
 11
271.643690167
 21
446.75
 31
0.0
  0
LINE
  5
375
330
1F
100
AcDbEntity
  8
0
  6
Continuous
 62
     1
100
AcDbLine
 10
271.643690167
 20
445.75
 30
0.0
 11
272.843690167
 21
446.95
 31
0.0
  0
LINE
  5
376
330
1F
100
AcDbEntity
  8
0
  6
Continuous
 62
     1
100
AcDbLine
 10
271.643690167
 20
445.75
 30
0.0
 11
272.843690167
 21
444.55
 31
0.0
  0
LINE
  5
377
330
1F
100
AcDbEntity
  8
0
  6
Continuous
 62
     1
100
AcDbLine
 10
273.063690167
 20
441.9
 30
0.0
 11
273.063690167
 21
442.9
 31
0.0
  0
ARC
  5
378
330
1F
100
AcDbEntity
  8
0
  6
Continuous
 62
     1
100
AcDbCircle
 10
275.663690167
 20
448.7
 30
0.0
 40
0.8
100
AcDbArc
 50
0.0
 51
90.0
  0
LINE
  5
379
330
1F
100
AcDbEntity
  8
0
  6
Continuous
 62
     1
100
AcDbLine
 10
275.663690167
 20
449.5
 30
0.0
 11
275.663690167
 21
449.5
 31
0.0
  0
LINE
  5
37A
330
1F
100
AcDbEntity
  8
0
  6
Continuous
 62
     1
100
AcDbLine
 10
274.863690167
 20
444.0
 30
0.0
 11
274.863690167
 21
448.7
 31
0.0
  0
ARC
  5
37B
330
1F
100
AcDbEntity
  8
0
  6
Continuous
 62
     1
100
AcDbCircle
 10
275.663690167
 20
448.7
 30
0.0
 40
0.8
100
AcDbArc
 50
90.0
 51
180.0
  0
LINE
  5
37C
330
1F
100
AcDbEntity
  8
0
  6
Continuous
 62
     1
100
AcDbLine
 10
276.463690167
 20
448.7
 30
0.0
 11
276.463690167
 21
443.294061623
 31
0.0
  0
ARC
  5
37D
330
1F
100
AcDbEntity
  8
0
  6
Continuous
 62
     1
100
AcDbCircle
 10
275.663690167
 20
443.294061623
 30
0.0
 40
0.8
100
AcDbArc
 50
319.635463427
 51
0.0
  0
LINE
  5
37E
330
1F
100
AcDbEntity
  8
0
  6
Continuous
 62
     1
100
AcDbLine
 10
273.063690167
 20
438.705938377
 30
0.0
 11
273.063690167
 21
410.0
 31
0.0
  0
LINE
  5
37F
330
1F
100
AcDbEntity
  8
0
  6
Continuous
 62
     1
100
AcDbLine
 10
276.273241622
 20
442.775942887
 30
0.0
 11
273.254138713
 21
439.224057113
 31
0.0
  0
ARC
  5
380
330
1F
100
AcDbEntity
  8
0
  6
Continuous
 62
     1
100
AcDbCircle
 10
273.863690167
 20
438.705938377
 30
0.0
 40
0.8
100
AcDbArc
 50
139.635463427
 51
180.0
  0
LINE
  5
381
330
1F
100
AcDbEntity
  8
0
  6
Continuous
 62
     1
100
AcDbLine
 10
271.654138713
 20
440.224057113
 30
0.0
 11
273.784190167
 21
442.73
 31
0.0
  0
ARC
  5
382
330
1F
100
AcDbEntity
  8
0
  6
Continuous
 62
     1
100
AcDbCircle
 10
272.263690167
 20
439.705938377
 30
0.0
 40
0.8
100
AcDbArc
 50
139.635463427
 51
180.0
  0
LINE
  5
383
330
1F
100
AcDbEntity
  8
0
  6
Continuous
 62
     1
100
AcDbLine
 10
274.663690167
 20
410.0
 30
0.0
 11
274.663690167
 21
379.1
 31
0.0
  0
LWPOLYLINE
  5
385
330
1F
100
AcDbEntity
  8
0
  6
Continuous
 62
     1
100
AcDbPolyline
 90
     4
 70
   129
 43
0.0
 10
274.843690167
 20
370.25
 10
274.843690167
 20
378.25
 10
274.343690167
 20
378.25
 10
274.343690167
 20
370.25
  0
LINE
  5
386
330
1F
100
AcDbEntity
  8
0
  6
Continuous
 62
     1
100
AcDbLine
 10
273.643690167
 20
377.25
 30
0.0
 11
274.343690167
 21
377.25
 31
0.0
  0
LWPOLYLINE
  5
388
330
1F
100
AcDbEntity
  8
0
  6
Continuous
 62
     1
100
AcDbPolyline
 90
     3
 70
   128
 43
0.0
 10
274.343690167
 20
371.25
 10
273.643690167
 20
371.25
 10
273.643690167
 20
377.25
  0
LINE
  5
389
330
1F
100
AcDbEntity
  8
0
  6
Continuous
 62
     1
100
AcDbLine
 10
274.343690167
 20
374.65
 30
0.0
 11
273.643690167
 21
373.85
 31
0.0
  0
ARC
  5
38A
330
1F
100
AcDbEntity
  8
0
  6
Continuous
 62
     1
100
AcDbCircle
 10
273.643690167
 20
373.25
 30
0.0
 40
2.0
100
AcDbArc
 50
180.0
 51
270.0
  0
ARC
  5
38B
330
1F
100
AcDbEntity
  8
0
  6
Continuous
 62
     1
100
AcDbCircle
 10
273.643690167
 20
375.25
 30
0.0
 40
2.0
100
AcDbArc
 50
90.0
 51
180.0
  0
LINE
  5
38C
330
1F
100
AcDbEntity
  8
0
  6
Continuous
 62
     1
100
AcDbLine
 10
271.643690167
 20
375.25
 30
0.0
 11
271.643690167
 21
373.25
 31
0.0
  0
LINE
  5
38D
330
1F
100
AcDbEntity
  8
0
  6
Continuous
 62
     1
100
AcDbLine
 10
271.643690167
 20
374.25
 30
0.0
 11
272.843690167
 21
373.05
 31
0.0
  0
LINE
  5
38E
330
1F
100
AcDbEntity
  8
0
  6
Continuous
 62
     1
100
AcDbLine
 10
271.643690167
 20
374.25
 30
0.0
 11
272.843690167
 21
375.45
 31
0.0
  0
LINE
  5
38F
330
1F
100
AcDbEntity
  8
0
  6
Continuous
 62
     1
100
AcDbLine
 10
273.063690167
 20
378.1
 30
0.0
 11
273.063690167
 21
377.1
 31
0.0
  0
ARC
  5
390
330
1F
100
AcDbEntity
  8
0
  6
Continuous
 62
     1
100
AcDbCircle
 10
275.663690167
 20
371.3
 30
0.0
 40
0.8
100
AcDbArc
 50
270.0
 51
0.0
  0
LINE
  5
391
330
1F
100
AcDbEntity
  8
0
  6
Continuous
 62
     1
100
AcDbLine
 10
275.663690167
 20
370.5
 30
0.0
 11
275.663690167
 21
370.5
 31
0.0
  0
LINE
  5
392
330
1F
100
AcDbEntity
  8
0
  6
Continuous
 62
     1
100
AcDbLine
 10
274.863690167
 20
376.0
 30
0.0
 11
274.863690167
 21
371.3
 31
0.0
  0
ARC
  5
393
330
1F
100
AcDbEntity
  8
0
  6
Continuous
 62
     1
100
AcDbCircle
 10
275.663690167
 20
371.3
 30
0.0
 40
0.8
100
AcDbArc
 50
180.0
 51
270.0
  0
LINE
  5
394
330
1F
100
AcDbEntity
  8
0
  6
Continuous
 62
     1
100
AcDbLine
 10
276.463690167
 20
371.3
 30
0.0
 11
276.463690167
 21
376.705938377
 31
0.0
  0
ARC
  5
395
330
1F
100
AcDbEntity
  8
0
  6
Continuous
 62
     1
100
AcDbCircle
 10
275.663690167
 20
376.705938377
 30
0.0
 40
0.8
100
AcDbArc
 50
0.0
 51
40.364536573
  0
LINE
  5
396
330
1F
100
AcDbEntity
  8
0
  6
Continuous
 62
     1
100
AcDbLine
 10
273.063690167
 20
381.294061623
 30
0.0
 11
273.063690167
 21
410.0
 31
0.0
  0
LINE
  5
397
330
1F
100
AcDbEntity
  8
0
  6
Continuous
 62
     1
100
AcDbLine
 10
276.273241622
 20
377.224057113
 30
0.0
 11
273.254138713
 21
380.775942887
 31
0.0
  0
ARC
  5
398
330
1F
100
AcDbEntity
  8
0
  6
Continuous
 62
     1
100
AcDbCircle
 10
273.863690167
 20
381.294061623
 30
0.0
 40
0.8
100
AcDbArc
 50
180.0
 51
220.364536573
  0
LINE
  5
399
330
1F
100
AcDbEntity
  8
0
  6
Continuous
 62
     1
100
AcDbLine
 10
271.654138713
 20
379.775942887
 30
0.0
 11
273.784190167
 21
377.27
 31
0.0
  0
ARC
  5
39A
330
1F
100
AcDbEntity
  8
0
  6
Continuous
 62
     1
100
AcDbCircle
 10
272.263690167
 20
380.294061623
 30
0.0
 40
0.8
100
AcDbArc
 50
180.0
 51
220.364536573
  0
LINE
  5
39B
330
1F
100
AcDbEntity
  8
0
  6
Continuous
 62
     1
100
AcDbLine
 10
271.463690167
 20
407.5
 30
0.0
 11
271.463690167
 21
380.294061623
 31
0.0
  0
ARC
  5
39C
330
1F
100
AcDbEntity
  8
0
  6
Continuous
 62
     1
100
AcDbCircle
 10
272.263690167
 20
407.5
 30
0.0
 40
0.8
100
AcDbArc
 50
90.0
 51
180.0
  0
LINE
  5
39D
330
1F
100
AcDbEntity
  8
0
  6
Continuous
 62
     1
100
AcDbLine
 10
271.463690167
 20
412.5
 30
0.0
 11
271.463690167
 21
439.705938377
 31
0.0
  0
LWPOLYLINE
  5
39F
330
1F
100
AcDbEntity
  8
0
  6
Continuous
 62
     1
100
AcDbPolyline
 90
     3
 70
   128
 43
0.0
 10
271.463690167
 20
412.5
 42
0.414213562
 10
272.263690167
 20
411.7
 42
0.0
 10
272.263690167
 20
411.7
 42
0.0
  0
LINE
  5
3A0
330
1F
100
AcDbEntity
  8
0
  6
Continuous
 62
     1
100
AcDbLine
 10
273.063690167
 20
412.5
 30
0.0
 11
273.063690167
 21
412.7
 31
0.0
  0
ARC
  5
3A1
330
1F
100
AcDbEntity
  8
0
  6
Continuous
 62
     1
100
AcDbCircle
 10
272.263690167
 20
412.5
 30
0.0
 40
0.8
100
AcDbArc
 50
270.0
 51
0.0
  0
LINE
  5
3A2
330
1F
100
AcDbEntity
  8
0
  6
Continuous
 62
     1
100
AcDbLine
 10
272.263690167
 20
408.3
 30
0.0
 11
272.263690167
 21
408.3
 31
0.0
  0
LINE
  5
3A3
330
1F
100
AcDbEntity
  8
0
  6
Continuous
 62
     1
100
AcDbLine
 10
273.063690167
 20
407.5
 30
0.0
 11
273.063690167
 21
407.3
 31
0.0
  0
ARC
  5
3A4
330
1F
100
AcDbEntity
  8
0
  6
Continuous
 62
     1
100
AcDbCircle
 10
272.263690167
 20
407.5
 30
0.0
 40
0.8
100
AcDbArc
 50
0.0
 51
90.0
  0
LINE
  5
3A5
330
1F
100
AcDbEntity
  8
0
  6
Continuous
 62
     1
100
AcDbLine
 10
274.663690167
 20
410.0
 30
0.0
 11
274.663690167
 21
440.9
 31
0.0
  0
LWPOLYLINE
  5
3A7
330
1F
100
AcDbEntity
  8
0
  6
Continuous
 62
     1
100
AcDbPolyline
 90
     4
 70
   129
 43
0.0
 10
274.843690167
 20
449.75
 10
274.843690167
 20
441.75
 10
274.343690167
 20
441.75
 10
274.343690167
 20
449.75
  0
LINE
  5
3A8
330
1F
100
AcDbEntity
  8
0
  6
Continuous
 62
     1
100
AcDbLine
 10
273.643690167
 20
442.75
 30
0.0
 11
274.343690167
 21
442.75
 31
0.0
  0
LWPOLYLINE
  5
3AA
330
1F
100
AcDbEntity
  8
0
  6
Continuous
 62
     1
100
AcDbPolyline
 90
     3
 70
   128
 43
0.0
 10
274.343690167
 20
448.75
 10
273.643690167
 20
448.75
 10
273.643690167
 20
442.75
  0
LINE
  5
3AB
330
1F
100
AcDbEntity
  8
0
  6
Continuous
 62
     1
100
AcDbLine
 10
274.343690167
 20
445.35
 30
0.0
 11
273.643690167
 21
446.15
 31
0.0
  0
ARC
  5
3AC
330
1F
100
AcDbEntity
  8
0
  6
Continuous
 62
     1
100
AcDbCircle
 10
273.643690167
 20
446.75
 30
0.0
 40
2.0
100
AcDbArc
 50
90.0
 51
180.0
  0
ARC
  5
3AD
330
1F
100
AcDbEntity
  8
0
  6
Continuous
 62
     1
100
AcDbCircle
 10
273.643690167
 20
444.75
 30
0.0
 40
2.0
100
AcDbArc
 50
180.0
 51
270.0
  0
LINE
  5
3AE
330
1F
100
AcDbEntity
  8
0
  6
Continuous
 62
     1
100
AcDbLine
 10
271.643690167
 20
444.75
 30
0.0
 11
271.643690167
 21
446.75
 31
0.0
  0
LINE
  5
3AF
330
1F
100
AcDbEntity
  8
0
  6
Continuous
 62
     1
100
AcDbLine
 10
271.643690167
 20
445.75
 30
0.0
 11
272.843690167
 21
446.95
 31
0.0
  0
LINE
  5
3B0
330
1F
100
AcDbEntity
  8
0
  6
Continuous
 62
     1
100
AcDbLine
 10
271.643690167
 20
445.75
 30
0.0
 11
272.843690167
 21
444.55
 31
0.0
  0
LINE
  5
3B1
330
1F
100
AcDbEntity
  8
0
  6
Continuous
 62
     1
100
AcDbLine
 10
273.063690167
 20
441.9
 30
0.0
 11
273.063690167
 21
442.9
 31
0.0
  0
ARC
  5
3B2
330
1F
100
AcDbEntity
  8
0
  6
Continuous
 62
     1
100
AcDbCircle
 10
275.663690167
 20
448.7
 30
0.0
 40
0.8
100
AcDbArc
 50
0.0
 51
90.0
  0
LINE
  5
3B3
330
1F
100
AcDbEntity
  8
0
  6
Continuous
 62
     1
100
AcDbLine
 10
275.663690167
 20
449.5
 30
0.0
 11
275.663690167
 21
449.5
 31
0.0
  0
LINE
  5
3B4
330
1F
100
AcDbEntity
  8
0
  6
Continuous
 62
     1
100
AcDbLine
 10
274.863690167
 20
444.0
 30
0.0
 11
274.863690167
 21
448.7
 31
0.0
  0
ARC
  5
3B5
330
1F
100
AcDbEntity
  8
0
  6
Continuous
 62
     1
100
AcDbCircle
 10
275.663690167
 20
448.7
 30
0.0
 40
0.8
100
AcDbArc
 50
90.0
 51
180.0
  0
LINE
  5
3B6
330
1F
100
AcDbEntity
  8
0
  6
Continuous
 62
     1
100
AcDbLine
 10
276.463690167
 20
448.7
 30
0.0
 11
276.463690167
 21
443.294061623
 31
0.0
  0
ARC
  5
3B7
330
1F
100
AcDbEntity
  8
0
  6
Continuous
 62
     1
100
AcDbCircle
 10
275.663690167
 20
443.294061623
 30
0.0
 40
0.8
100
AcDbArc
 50
319.635463427
 51
0.0
  0
LINE
  5
3B8
330
1F
100
AcDbEntity
  8
0
  6
Continuous
 62
     1
100
AcDbLine
 10
273.063690167
 20
438.705938377
 30
0.0
 11
273.063690167
 21
410.0
 31
0.0
  0
LINE
  5
3B9
330
1F
100
AcDbEntity
  8
0
  6
Continuous
 62
     1
100
AcDbLine
 10
276.273241622
 20
442.775942887
 30
0.0
 11
273.254138713
 21
439.224057113
 31
0.0
  0
ARC
  5
3BA
330
1F
100
AcDbEntity
  8
0
  6
Continuous
 62
     1
100
AcDbCircle
 10
273.863690167
 20
438.705938377
 30
0.0
 40
0.8
100
AcDbArc
 50
139.635463427
 51
180.0
  0
LINE
  5
3BB
330
1F
100
AcDbEntity
  8
0
  6
Continuous
 62
     1
100
AcDbLine
 10
271.654138713
 20
440.224057113
 30
0.0
 11
273.784190167
 21
442.73
 31
0.0
  0
ARC
  5
3BC
330
1F
100
AcDbEntity
  8
0
  6
Continuous
 62
     1
100
AcDbCircle
 10
272.263690167
 20
439.705938377
 30
0.0
 40
0.8
100
AcDbArc
 50
139.635463427
 51
180.0
  0
LINE
  5
3BD
330
1F
100
AcDbEntity
  8
0
  6
Continuous
 62
     1
100
AcDbLine
 10
274.663690167
 20
410.0
 30
0.0
 11
274.663690167
 21
379.1
 31
0.0
  0
LWPOLYLINE
  5
3BF
330
1F
100
AcDbEntity
  8
0
  6
Continuous
 62
     1
100
AcDbPolyline
 90
     4
 70
   129
 43
0.0
 10
274.843690167
 20
370.25
 10
274.843690167
 20
378.25
 10
274.343690167
 20
378.25
 10
274.343690167
 20
370.25
  0
LINE
  5
3C0
330
1F
100
AcDbEntity
  8
0
  6
Continuous
 62
     1
100
AcDbLine
 10
273.643690167
 20
377.25
 30
0.0
 11
274.343690167
 21
377.25
 31
0.0
  0
LWPOLYLINE
  5
3C2
330
1F
100
AcDbEntity
  8
0
  6
Continuous
 62
     1
100
AcDbPolyline
 90
     3
 70
   128
 43
0.0
 10
274.343690167
 20
371.25
 10
273.643690167
 20
371.25
 10
273.643690167
 20
377.25
  0
LINE
  5
3C3
330
1F
100
AcDbEntity
  8
0
  6
Continuous
 62
     1
100
AcDbLine
 10
274.343690167
 20
374.65
 30
0.0
 11
273.643690167
 21
373.85
 31
0.0
  0
ARC
  5
3C4
330
1F
100
AcDbEntity
  8
0
  6
Continuous
 62
     1
100
AcDbCircle
 10
273.643690167
 20
373.25
 30
0.0
 40
2.0
100
AcDbArc
 50
180.0
 51
270.0
  0
ARC
  5
3C5
330
1F
100
AcDbEntity
  8
0
  6
Continuous
 62
     1
100
AcDbCircle
 10
273.643690167
 20
375.25
 30
0.0
 40
2.0
100
AcDbArc
 50
90.0
 51
180.0
  0
LINE
  5
3C6
330
1F
100
AcDbEntity
  8
0
  6
Continuous
 62
     1
100
AcDbLine
 10
271.643690167
 20
375.25
 30
0.0
 11
271.643690167
 21
373.25
 31
0.0
  0
LINE
  5
3C7
330
1F
100
AcDbEntity
  8
0
  6
Continuous
 62
     1
100
AcDbLine
 10
271.643690167
 20
374.25
 30
0.0
 11
272.843690167
 21
373.05
 31
0.0
  0
LINE
  5
3C8
330
1F
100
AcDbEntity
  8
0
  6
Continuous
 62
     1
100
AcDbLine
 10
271.643690167
 20
374.25
 30
0.0
 11
272.843690167
 21
375.45
 31
0.0
  0
LINE
  5
3C9
330
1F
100
AcDbEntity
  8
0
  6
Continuous
 62
     1
100
AcDbLine
 10
273.063690167
 20
378.1
 30
0.0
 11
273.063690167
 21
377.1
 31
0.0
  0
ARC
  5
3CA
330
1F
100
AcDbEntity
  8
0
  6
Continuous
 62
     1
100
AcDbCircle
 10
275.663690167
 20
371.3
 30
0.0
 40
0.8
100
AcDbArc
 50
270.0
 51
0.0
  0
LINE
  5
3CB
330
1F
100
AcDbEntity
  8
0
  6
Continuous
 62
     1
100
AcDbLine
 10
275.663690167
 20
370.5
 30
0.0
 11
275.663690167
 21
370.5
 31
0.0
  0
LINE
  5
3CC
330
1F
100
AcDbEntity
  8
0
  6
Continuous
 62
     1
100
AcDbLine
 10
274.863690167
 20
376.0
 30
0.0
 11
274.863690167
 21
371.3
 31
0.0
  0
ARC
  5
3CD
330
1F
100
AcDbEntity
  8
0
  6
Continuous
 62
     1
100
AcDbCircle
 10
275.663690167
 20
371.3
 30
0.0
 40
0.8
100
AcDbArc
 50
180.0
 51
270.0
  0
LINE
  5
3CE
330
1F
100
AcDbEntity
  8
0
  6
Continuous
 62
     1
100
AcDbLine
 10
276.463690167
 20
371.3
 30
0.0
 11
276.463690167
 21
376.705938377
 31
0.0
  0
ARC
  5
3CF
330
1F
100
AcDbEntity
  8
0
  6
Continuous
 62
     1
100
AcDbCircle
 10
275.663690167
 20
376.705938377
 30
0.0
 40
0.8
100
AcDbArc
 50
0.0
 51
40.364536573
  0
LINE
  5
3D0
330
1F
100
AcDbEntity
  8
0
  6
Continuous
 62
     1
100
AcDbLine
 10
273.063690167
 20
381.294061623
 30
0.0
 11
273.063690167
 21
410.0
 31
0.0
  0
LINE
  5
3D1
330
1F
100
AcDbEntity
  8
0
  6
Continuous
 62
     1
100
AcDbLine
 10
276.273241622
 20
377.224057113
 30
0.0
 11
273.254138713
 21
380.775942887
 31
0.0
  0
ARC
  5
3D2
330
1F
100
AcDbEntity
  8
0
  6
Continuous
 62
     1
100
AcDbCircle
 10
273.863690167
 20
381.294061623
 30
0.0
 40
0.8
100
AcDbArc
 50
180.0
 51
220.364536573
  0
LINE
  5
3D3
330
1F
100
AcDbEntity
  8
0
  6
Continuous
 62
     1
100
AcDbLine
 10
271.654138713
 20
379.775942887
 30
0.0
 11
273.784190167
 21
377.27
 31
0.0
  0
ARC
  5
3D4
330
1F
100
AcDbEntity
  8
0
  6
Continuous
 62
     1
100
AcDbCircle
 10
272.263690167
 20
380.294061623
 30
0.0
 40
0.8
100
AcDbArc
 50
180.0
 51
220.364536573
  0
LINE
  5
3D5
330
1F
100
AcDbEntity
  8
0
  6
Continuous
 62
     1
100
AcDbLine
 10
271.463690167
 20
407.5
 30
0.0
 11
271.463690167
 21
380.294061623
 31
0.0
  0
ARC
  5
3D6
330
1F
100
AcDbEntity
  8
0
  6
Continuous
 62
     1
100
AcDbCircle
 10
272.263690167
 20
407.5
 30
0.0
 40
0.8
100
AcDbArc
 50
90.0
 51
180.0
  0
LINE
  5
3D7
330
1F
100
AcDbEntity
  8
0
  6
Continuous
 62
     1
100
AcDbLine
 10
271.463690167
 20
412.5
 30
0.0
 11
271.463690167
 21
439.705938377
 31
0.0
  0
LWPOLYLINE
  5
3D9
330
1F
100
AcDbEntity
  8
0
  6
Continuous
 62
     1
100
AcDbPolyline
 90
     3
 70
   128
 43
0.0
 10
271.463690167
 20
412.5
 42
0.414213562
 10
272.263690167
 20
411.7
 42
0.0
 10
272.263690167
 20
411.7
 42
0.0
  0
LINE
  5
3DA
330
1F
100
AcDbEntity
  8
0
  6
Continuous
 62
     1
100
AcDbLine
 10
273.063690167
 20
412.5
 30
0.0
 11
273.063690167
 21
412.7
 31
0.0
  0
ARC
  5
3DB
330
1F
100
AcDbEntity
  8
0
  6
Continuous
 62
     1
100
AcDbCircle
 10
272.263690167
 20
412.5
 30
0.0
 40
0.8
100
AcDbArc
 50
270.0
 51
0.0
  0
LINE
  5
3DC
330
1F
100
AcDbEntity
  8
0
  6
Continuous
 62
     1
100
AcDbLine
 10
272.263690167
 20
408.3
 30
0.0
 11
272.263690167
 21
408.3
 31
0.0
  0
LINE
  5
3DD
330
1F
100
AcDbEntity
  8
0
  6
Continuous
 62
     1
100
AcDbLine
 10
273.063690167
 20
407.5
 30
0.0
 11
273.063690167
 21
407.3
 31
0.0
  0
ARC
  5
3DE
330
1F
100
AcDbEntity
  8
0
  6
Continuous
 62
     1
100
AcDbCircle
 10
272.263690167
 20
407.5
 30
0.0
 40
0.8
100
AcDbArc
 50
0.0
 51
90.0
  0
LINE
  5
3DF
330
1F
100
AcDbEntity
  8
0
  6
Continuous
 62
     1
100
AcDbLine
 10
274.663690167
 20
410.0
 30
0.0
 11
274.663690167
 21
440.9
 31
0.0
  0
LWPOLYLINE
  5
3E1
330
1F
100
AcDbEntity
  8
0
  6
Continuous
 62
     1
100
AcDbPolyline
 90
     4
 70
   129
 43
0.0
 10
274.843690167
 20
449.75
 10
274.843690167
 20
441.75
 10
274.343690167
 20
441.75
 10
274.343690167
 20
449.75
  0
LINE
  5
3E2
330
1F
100
AcDbEntity
  8
0
  6
Continuous
 62
     1
100
AcDbLine
 10
273.643690167
 20
442.75
 30
0.0
 11
274.343690167
 21
442.75
 31
0.0
  0
LWPOLYLINE
  5
3E4
330
1F
100
AcDbEntity
  8
0
  6
Continuous
 62
     1
100
AcDbPolyline
 90
     3
 70
   128
 43
0.0
 10
274.343690167
 20
448.75
 10
273.643690167
 20
448.75
 10
273.643690167
 20
442.75
  0
LINE
  5
3E5
330
1F
100
AcDbEntity
  8
0
  6
Continuous
 62
     1
100
AcDbLine
 10
274.343690167
 20
445.35
 30
0.0
 11
273.643690167
 21
446.15
 31
0.0
  0
ARC
  5
3E6
330
1F
100
AcDbEntity
  8
0
  6
Continuous
 62
     1
100
AcDbCircle
 10
273.643690167
 20
446.75
 30
0.0
 40
2.0
100
AcDbArc
 50
90.0
 51
180.0
  0
ARC
  5
3E7
330
1F
100
AcDbEntity
  8
0
  6
Continuous
 62
     1
100
AcDbCircle
 10
273.643690167
 20
444.75
 30
0.0
 40
2.0
100
AcDbArc
 50
180.0
 51
270.0
  0
LINE
  5
3E8
330
1F
100
AcDbEntity
  8
0
  6
Continuous
 62
     1
100
AcDbLine
 10
271.643690167
 20
444.75
 30
0.0
 11
271.643690167
 21
446.75
 31
0.0
  0
LINE
  5
3E9
330
1F
100
AcDbEntity
  8
0
  6
Continuous
 62
     1
100
AcDbLine
 10
271.643690167
 20
445.75
 30
0.0
 11
272.843690167
 21
446.95
 31
0.0
  0
LINE
  5
3EA
330
1F
100
AcDbEntity
  8
0
  6
Continuous
 62
     1
100
AcDbLine
 10
271.643690167
 20
445.75
 30
0.0
 11
272.843690167
 21
444.55
 31
0.0
  0
LINE
  5
3EB
330
1F
100
AcDbEntity
  8
0
  6
Continuous
 62
     1
100
AcDbLine
 10
273.063690167
 20
441.9
 30
0.0
 11
273.063690167
 21
442.9
 31
0.0
  0
ARC
  5
3EC
330
1F
100
AcDbEntity
  8
0
  6
Continuous
 62
     1
100
AcDbCircle
 10
275.663690167
 20
448.7
 30
0.0
 40
0.8
100
AcDbArc
 50
0.0
 51
90.0
  0
LINE
  5
3ED
330
1F
100
AcDbEntity
  8
0
  6
Continuous
 62
     1
100
AcDbLine
 10
275.663690167
 20
449.5
 30
0.0
 11
275.663690167
 21
449.5
 31
0.0
  0
LINE
  5
3EE
330
1F
100
AcDbEntity
  8
0
  6
Continuous
 62
     1
100
AcDbLine
 10
274.863690167
 20
444.0
 30
0.0
 11
274.863690167
 21
448.7
 31
0.0
  0
ARC
  5
3EF
330
1F
100
AcDbEntity
  8
0
  6
Continuous
 62
     1
100
AcDbCircle
 10
275.663690167
 20
448.7
 30
0.0
 40
0.8
100
AcDbArc
 50
90.0
 51
180.0
  0
LINE
  5
3F0
330
1F
100
AcDbEntity
  8
0
  6
Continuous
 62
     1
100
AcDbLine
 10
276.463690167
 20
448.7
 30
0.0
 11
276.463690167
 21
443.294061623
 31
0.0
  0
ARC
  5
3F1
330
1F
100
AcDbEntity
  8
0
  6
Continuous
 62
     1
100
AcDbCircle
 10
275.663690167
 20
443.294061623
 30
0.0
 40
0.8
100
AcDbArc
 50
319.635463427
 51
0.0
  0
LINE
  5
3F2
330
1F
100
AcDbEntity
  8
0
  6
Continuous
 62
     1
100
AcDbLine
 10
273.063690167
 20
438.705938377
 30
0.0
 11
273.063690167
 21
410.0
 31
0.0
  0
LINE
  5
3F3
330
1F
100
AcDbEntity
  8
0
  6
Continuous
 62
     1
100
AcDbLine
 10
276.273241622
 20
442.775942887
 30
0.0
 11
273.254138713
 21
439.224057113
 31
0.0
  0
ARC
  5
3F4
330
1F
100
AcDbEntity
  8
0
  6
Continuous
 62
     1
100
AcDbCircle
 10
273.863690167
 20
438.705938377
 30
0.0
 40
0.8
100
AcDbArc
 50
139.635463427
 51
180.0
  0
LINE
  5
3F5
330
1F
100
AcDbEntity
  8
0
  6
Continuous
 62
     1
100
AcDbLine
 10
271.654138713
 20
440.224057113
 30
0.0
 11
273.784190167
 21
442.73
 31
0.0
  0
ARC
  5
3F6
330
1F
100
AcDbEntity
  8
0
  6
Continuous
 62
     1
100
AcDbCircle
 10
272.263690167
 20
439.705938377
 30
0.0
 40
0.8
100
AcDbArc
 50
139.635463427
 51
180.0
  0
LINE
  5
3F7
330
1F
100
AcDbEntity
  8
0
  6
Continuous
 62
     1
100
AcDbLine
 10
274.663690167
 20
410.0
 30
0.0
 11
274.663690167
 21
379.1
 31
0.0
  0
LWPOLYLINE
  5
3F9
330
1F
100
AcDbEntity
  8
0
  6
Continuous
 62
     1
100
AcDbPolyline
 90
     4
 70
   129
 43
0.0
 10
274.843690167
 20
370.25
 10
274.843690167
 20
378.25
 10
274.343690167
 20
378.25
 10
274.343690167
 20
370.25
  0
LINE
  5
3FA
330
1F
100
AcDbEntity
  8
0
  6
Continuous
 62
     1
100
AcDbLine
 10
273.643690167
 20
377.25
 30
0.0
 11
274.343690167
 21
377.25
 31
0.0
  0
LWPOLYLINE
  5
3FC
330
1F
100
AcDbEntity
  8
0
  6
Continuous
 62
     1
100
AcDbPolyline
 90
     3
 70
   128
 43
0.0
 10
274.343690167
 20
371.25
 10
273.643690167
 20
371.25
 10
273.643690167
 20
377.25
  0
LINE
  5
3FD
330
1F
100
AcDbEntity
  8
0
  6
Continuous
 62
     1
100
AcDbLine
 10
274.343690167
 20
374.65
 30
0.0
 11
273.643690167
 21
373.85
 31
0.0
  0
ARC
  5
3FE
330
1F
100
AcDbEntity
  8
0
  6
Continuous
 62
     1
100
AcDbCircle
 10
273.643690167
 20
373.25
 30
0.0
 40
2.0
100
AcDbArc
 50
180.0
 51
270.0
  0
ARC
  5
3FF
330
1F
100
AcDbEntity
  8
0
  6
Continuous
 62
     1
100
AcDbCircle
 10
273.643690167
 20
375.25
 30
0.0
 40
2.0
100
AcDbArc
 50
90.0
 51
180.0
  0
LINE
  5
400
330
1F
100
AcDbEntity
  8
0
  6
Continuous
 62
     1
100
AcDbLine
 10
271.643690167
 20
375.25
 30
0.0
 11
271.643690167
 21
373.25
 31
0.0
  0
LINE
  5
401
330
1F
100
AcDbEntity
  8
0
  6
Continuous
 62
     1
100
AcDbLine
 10
271.643690167
 20
374.25
 30
0.0
 11
272.843690167
 21
373.05
 31
0.0
  0
LINE
  5
402
330
1F
100
AcDbEntity
  8
0
  6
Continuous
 62
     1
100
AcDbLine
 10
271.643690167
 20
374.25
 30
0.0
 11
272.843690167
 21
375.45
 31
0.0
  0
LINE
  5
403
330
1F
100
AcDbEntity
  8
0
  6
Continuous
 62
     1
100
AcDbLine
 10
273.063690167
 20
378.1
 30
0.0
 11
273.063690167
 21
377.1
 31
0.0
  0
ARC
  5
404
330
1F
100
AcDbEntity
  8
0
  6
Continuous
 62
     1
100
AcDbCircle
 10
275.663690167
 20
371.3
 30
0.0
 40
0.8
100
AcDbArc
 50
270.0
 51
0.0
  0
LINE
  5
405
330
1F
100
AcDbEntity
  8
0
  6
Continuous
 62
     1
100
AcDbLine
 10
275.663690167
 20
370.5
 30
0.0
 11
275.663690167
 21
370.5
 31
0.0
  0
LINE
  5
406
330
1F
100
AcDbEntity
  8
0
  6
Continuous
 62
     1
100
AcDbLine
 10
274.863690167
 20
376.0
 30
0.0
 11
274.863690167
 21
371.3
 31
0.0
  0
ARC
  5
407
330
1F
100
AcDbEntity
  8
0
  6
Continuous
 62
     1
100
AcDbCircle
 10
275.663690167
 20
371.3
 30
0.0
 40
0.8
100
AcDbArc
 50
180.0
 51
270.0
  0
LINE
  5
408
330
1F
100
AcDbEntity
  8
0
  6
Continuous
 62
     1
100
AcDbLine
 10
276.463690167
 20
371.3
 30
0.0
 11
276.463690167
 21
376.705938377
 31
0.0
  0
ARC
  5
409
330
1F
100
AcDbEntity
  8
0
  6
Continuous
 62
     1
100
AcDbCircle
 10
275.663690167
 20
376.705938377
 30
0.0
 40
0.8
100
AcDbArc
 50
0.0
 51
40.364536573
  0
LINE
  5
40A
330
1F
100
AcDbEntity
  8
0
  6
Continuous
 62
     1
100
AcDbLine
 10
273.063690167
 20
381.294061623
 30
0.0
 11
273.063690167
 21
410.0
 31
0.0
  0
LINE
  5
40B
330
1F
100
AcDbEntity
  8
0
  6
Continuous
 62
     1
100
AcDbLine
 10
276.273241622
 20
377.224057113
 30
0.0
 11
273.254138713
 21
380.775942887
 31
0.0
  0
ARC
  5
40C
330
1F
100
AcDbEntity
  8
0
  6
Continuous
 62
     1
100
AcDbCircle
 10
273.863690167
 20
381.294061623
 30
0.0
 40
0.8
100
AcDbArc
 50
180.0
 51
220.364536573
  0
LINE
  5
40D
330
1F
100
AcDbEntity
  8
0
  6
Continuous
 62
     1
100
AcDbLine
 10
271.654138713
 20
379.775942887
 30
0.0
 11
273.784190167
 21
377.27
 31
0.0
  0
ARC
  5
40E
330
1F
100
AcDbEntity
  8
0
  6
Continuous
 62
     1
100
AcDbCircle
 10
272.263690167
 20
380.294061623
 30
0.0
 40
0.8
100
AcDbArc
 50
180.0
 51
220.364536573
  0
LINE
  5
40F
330
1F
100
AcDbEntity
  8
0
  6
Continuous
 62
     1
100
AcDbLine
 10
271.463690167
 20
407.5
 30
0.0
 11
271.463690167
 21
380.294061623
 31
0.0
  0
ARC
  5
410
330
1F
100
AcDbEntity
  8
0
  6
Continuous
 62
     1
100
AcDbCircle
 10
272.263690167
 20
407.5
 30
0.0
 40
0.8
100
AcDbArc
 50
90.0
 51
180.0
  0
LINE
  5
411
330
1F
100
AcDbEntity
  8
0
  6
Continuous
 62
     1
100
AcDbLine
 10
271.463690167
 20
412.5
 30
0.0
 11
271.463690167
 21
439.705938377
 31
0.0
  0
LWPOLYLINE
  5
413
330
1F
100
AcDbEntity
  8
0
  6
Continuous
 62
     1
100
AcDbPolyline
 90
     3
 70
   128
 43
0.0
 10
271.463690167
 20
412.5
 42
0.414213562
 10
272.263690167
 20
411.7
 42
0.0
 10
272.263690167
 20
411.7
 42
0.0
  0
LINE
  5
414
330
1F
100
AcDbEntity
  8
0
  6
Continuous
 62
     1
100
AcDbLine
 10
273.063690167
 20
412.5
 30
0.0
 11
273.063690167
 21
412.7
 31
0.0
  0
ARC
  5
415
330
1F
100
AcDbEntity
  8
0
  6
Continuous
 62
     1
100
AcDbCircle
 10
272.263690167
 20
412.5
 30
0.0
 40
0.8
100
AcDbArc
 50
270.0
 51
0.0
  0
LINE
  5
416
330
1F
100
AcDbEntity
  8
0
  6
Continuous
 62
     1
100
AcDbLine
 10
272.263690167
 20
408.3
 30
0.0
 11
272.263690167
 21
408.3
 31
0.0
  0
LINE
  5
417
330
1F
100
AcDbEntity
  8
0
  6
Continuous
 62
     1
100
AcDbLine
 10
273.063690167
 20
407.5
 30
0.0
 11
273.063690167
 21
407.3
 31
0.0
  0
ARC
  5
418
330
1F
100
AcDbEntity
  8
0
  6
Continuous
 62
     1
100
AcDbCircle
 10
272.263690167
 20
407.5
 30
0.0
 40
0.8
100
AcDbArc
 50
0.0
 51
90.0
  0
LINE
  5
419
330
1F
100
AcDbEntity
  8
0
  6
Continuous
 62
     1
100
AcDbLine
 10
274.663690167
 20
410.0
 30
0.0
 11
274.663690167
 21
440.9
 31
0.0
  0
LWPOLYLINE
  5
41B
330
1F
100
AcDbEntity
  8
0
  6
Continuous
 62
     1
100
AcDbPolyline
 90
     4
 70
   129
 43
0.0
 10
274.843690167
 20
449.75
 10
274.843690167
 20
441.75
 10
274.343690167
 20
441.75
 10
274.343690167
 20
449.75
  0
LINE
  5
41C
330
1F
100
AcDbEntity
  8
0
  6
Continuous
 62
     1
100
AcDbLine
 10
273.643690167
 20
442.75
 30
0.0
 11
274.343690167
 21
442.75
 31
0.0
  0
LWPOLYLINE
  5
41E
330
1F
100
AcDbEntity
  8
0
  6
Continuous
 62
     1
100
AcDbPolyline
 90
     3
 70
   128
 43
0.0
 10
274.343690167
 20
448.75
 10
273.643690167
 20
448.75
 10
273.643690167
 20
442.75
  0
LINE
  5
41F
330
1F
100
AcDbEntity
  8
0
  6
Continuous
 62
     1
100
AcDbLine
 10
274.343690167
 20
445.35
 30
0.0
 11
273.643690167
 21
446.15
 31
0.0
  0
ARC
  5
420
330
1F
100
AcDbEntity
  8
0
  6
Continuous
 62
     1
100
AcDbCircle
 10
273.643690167
 20
446.75
 30
0.0
 40
2.0
100
AcDbArc
 50
90.0
 51
180.0
  0
ARC
  5
421
330
1F
100
AcDbEntity
  8
0
  6
Continuous
 62
     1
100
AcDbCircle
 10
273.643690167
 20
444.75
 30
0.0
 40
2.0
100
AcDbArc
 50
180.0
 51
270.0
  0
LINE
  5
422
330
1F
100
AcDbEntity
  8
0
  6
Continuous
 62
     1
100
AcDbLine
 10
271.643690167
 20
444.75
 30
0.0
 11
271.643690167
 21
446.75
 31
0.0
  0
LINE
  5
423
330
1F
100
AcDbEntity
  8
0
  6
Continuous
 62
     1
100
AcDbLine
 10
271.643690167
 20
445.75
 30
0.0
 11
272.843690167
 21
446.95
 31
0.0
  0
LINE
  5
424
330
1F
100
AcDbEntity
  8
0
  6
Continuous
 62
     1
100
AcDbLine
 10
271.643690167
 20
445.75
 30
0.0
 11
272.843690167
 21
444.55
 31
0.0
  0
LINE
  5
425
330
1F
100
AcDbEntity
  8
0
  6
Continuous
 62
     1
100
AcDbLine
 10
273.063690167
 20
441.9
 30
0.0
 11
273.063690167
 21
442.9
 31
0.0
  0
ARC
  5
426
330
1F
100
AcDbEntity
  8
0
  6
Continuous
 62
     1
100
AcDbCircle
 10
275.663690167
 20
448.7
 30
0.0
 40
0.8
100
AcDbArc
 50
0.0
 51
90.0
  0
LINE
  5
427
330
1F
100
AcDbEntity
  8
0
  6
Continuous
 62
     1
100
AcDbLine
 10
275.663690167
 20
449.5
 30
0.0
 11
275.663690167
 21
449.5
 31
0.0
  0
LINE
  5
428
330
1F
100
AcDbEntity
  8
0
  6
Continuous
 62
     1
100
AcDbLine
 10
274.863690167
 20
444.0
 30
0.0
 11
274.863690167
 21
448.7
 31
0.0
  0
ARC
  5
429
330
1F
100
AcDbEntity
  8
0
  6
Continuous
 62
     1
100
AcDbCircle
 10
275.663690167
 20
448.7
 30
0.0
 40
0.8
100
AcDbArc
 50
90.0
 51
180.0
  0
LINE
  5
42A
330
1F
100
AcDbEntity
  8
0
  6
Continuous
 62
     1
100
AcDbLine
 10
276.463690167
 20
448.7
 30
0.0
 11
276.463690167
 21
443.294061623
 31
0.0
  0
ARC
  5
42B
330
1F
100
AcDbEntity
  8
0
  6
Continuous
 62
     1
100
AcDbCircle
 10
275.663690167
 20
443.294061623
 30
0.0
 40
0.8
100
AcDbArc
 50
319.635463427
 51
0.0
  0
LINE
  5
42C
330
1F
100
AcDbEntity
  8
0
  6
Continuous
 62
     1
100
AcDbLine
 10
273.063690167
 20
438.705938377
 30
0.0
 11
273.063690167
 21
410.0
 31
0.0
  0
LINE
  5
42D
330
1F
100
AcDbEntity
  8
0
  6
Continuous
 62
     1
100
AcDbLine
 10
276.273241622
 20
442.775942887
 30
0.0
 11
273.254138713
 21
439.224057113
 31
0.0
  0
ARC
  5
42E
330
1F
100
AcDbEntity
  8
0
  6
Continuous
 62
     1
100
AcDbCircle
 10
273.863690167
 20
438.705938377
 30
0.0
 40
0.8
100
AcDbArc
 50
139.635463427
 51
180.0
  0
LINE
  5
42F
330
1F
100
AcDbEntity
  8
0
  6
Continuous
 62
     1
100
AcDbLine
 10
271.654138713
 20
440.224057113
 30
0.0
 11
273.784190167
 21
442.73
 31
0.0
  0
ARC
  5
430
330
1F
100
AcDbEntity
  8
0
  6
Continuous
 62
     1
100
AcDbCircle
 10
272.263690167
 20
439.705938377
 30
0.0
 40
0.8
100
AcDbArc
 50
139.635463427
 51
180.0
  0
LINE
  5
431
330
1F
100
AcDbEntity
  8
0
  6
Continuous
 62
     1
100
AcDbLine
 10
274.663690167
 20
410.0
 30
0.0
 11
274.663690167
 21
379.1
 31
0.0
  0
LWPOLYLINE
  5
433
330
1F
100
AcDbEntity
  8
0
  6
Continuous
 62
     1
100
AcDbPolyline
 90
     4
 70
   129
 43
0.0
 10
274.843690167
 20
370.25
 10
274.843690167
 20
378.25
 10
274.343690167
 20
378.25
 10
274.343690167
 20
370.25
  0
LINE
  5
434
330
1F
100
AcDbEntity
  8
0
  6
Continuous
 62
     1
100
AcDbLine
 10
273.643690167
 20
377.25
 30
0.0
 11
274.343690167
 21
377.25
 31
0.0
  0
LWPOLYLINE
  5
436
330
1F
100
AcDbEntity
  8
0
  6
Continuous
 62
     1
100
AcDbPolyline
 90
     3
 70
   128
 43
0.0
 10
274.343690167
 20
371.25
 10
273.643690167
 20
371.25
 10
273.643690167
 20
377.25
  0
LINE
  5
437
330
1F
100
AcDbEntity
  8
0
  6
Continuous
 62
     1
100
AcDbLine
 10
274.343690167
 20
374.65
 30
0.0
 11
273.643690167
 21
373.85
 31
0.0
  0
ARC
  5
438
330
1F
100
AcDbEntity
  8
0
  6
Continuous
 62
     1
100
AcDbCircle
 10
273.643690167
 20
373.25
 30
0.0
 40
2.0
100
AcDbArc
 50
180.0
 51
270.0
  0
ARC
  5
439
330
1F
100
AcDbEntity
  8
0
  6
Continuous
 62
     1
100
AcDbCircle
 10
273.643690167
 20
375.25
 30
0.0
 40
2.0
100
AcDbArc
 50
90.0
 51
180.0
  0
LINE
  5
43A
330
1F
100
AcDbEntity
  8
0
  6
Continuous
 62
     1
100
AcDbLine
 10
271.643690167
 20
375.25
 30
0.0
 11
271.643690167
 21
373.25
 31
0.0
  0
LINE
  5
43B
330
1F
100
AcDbEntity
  8
0
  6
Continuous
 62
     1
100
AcDbLine
 10
271.643690167
 20
374.25
 30
0.0
 11
272.843690167
 21
373.05
 31
0.0
  0
LINE
  5
43C
330
1F
100
AcDbEntity
  8
0
  6
Continuous
 62
     1
100
AcDbLine
 10
271.643690167
 20
374.25
 30
0.0
 11
272.843690167
 21
375.45
 31
0.0
  0
LINE
  5
43D
330
1F
100
AcDbEntity
  8
0
  6
Continuous
 62
     1
100
AcDbLine
 10
273.063690167
 20
378.1
 30
0.0
 11
273.063690167
 21
377.1
 31
0.0
  0
ARC
  5
43E
330
1F
100
AcDbEntity
  8
0
  6
Continuous
 62
     1
100
AcDbCircle
 10
275.663690167
 20
371.3
 30
0.0
 40
0.8
100
AcDbArc
 50
270.0
 51
0.0
  0
LINE
  5
43F
330
1F
100
AcDbEntity
  8
0
  6
Continuous
 62
     1
100
AcDbLine
 10
275.663690167
 20
370.5
 30
0.0
 11
275.663690167
 21
370.5
 31
0.0
  0
LINE
  5
440
330
1F
100
AcDbEntity
  8
0
  6
Continuous
 62
     1
100
AcDbLine
 10
274.863690167
 20
376.0
 30
0.0
 11
274.863690167
 21
371.3
 31
0.0
  0
ARC
  5
441
330
1F
100
AcDbEntity
  8
0
  6
Continuous
 62
     1
100
AcDbCircle
 10
275.663690167
 20
371.3
 30
0.0
 40
0.8
100
AcDbArc
 50
180.0
 51
270.0
  0
LINE
  5
442
330
1F
100
AcDbEntity
  8
0
  6
Continuous
 62
     1
100
AcDbLine
 10
276.463690167
 20
371.3
 30
0.0
 11
276.463690167
 21
376.705938377
 31
0.0
  0
ARC
  5
443
330
1F
100
AcDbEntity
  8
0
  6
Continuous
 62
     1
100
AcDbCircle
 10
275.663690167
 20
376.705938377
 30
0.0
 40
0.8
100
AcDbArc
 50
0.0
 51
40.364536573
  0
LINE
  5
444
330
1F
100
AcDbEntity
  8
0
  6
Continuous
 62
     1
100
AcDbLine
 10
273.063690167
 20
381.294061623
 30
0.0
 11
273.063690167
 21
410.0
 31
0.0
  0
LINE
  5
445
330
1F
100
AcDbEntity
  8
0
  6
Continuous
 62
     1
100
AcDbLine
 10
276.273241622
 20
377.224057113
 30
0.0
 11
273.254138713
 21
380.775942887
 31
0.0
  0
ARC
  5
446
330
1F
100
AcDbEntity
  8
0
  6
Continuous
 62
     1
100
AcDbCircle
 10
273.863690167
 20
381.294061623
 30
0.0
 40
0.8
100
AcDbArc
 50
180.0
 51
220.364536573
  0
LINE
  5
447
330
1F
100
AcDbEntity
  8
0
  6
Continuous
 62
     1
100
AcDbLine
 10
271.654138713
 20
379.775942887
 30
0.0
 11
273.784190167
 21
377.27
 31
0.0
  0
ARC
  5
448
330
1F
100
AcDbEntity
  8
0
  6
Continuous
 62
     1
100
AcDbCircle
 10
272.263690167
 20
380.294061623
 30
0.0
 40
0.8
100
AcDbArc
 50
180.0
 51
220.364536573
  0
LINE
  5
449
330
1F
100
AcDbEntity
  8
0
  6
Continuous
 62
     1
100
AcDbLine
 10
271.463690167
 20
407.5
 30
0.0
 11
271.463690167
 21
380.294061623
 31
0.0
  0
ARC
  5
44A
330
1F
100
AcDbEntity
  8
0
  6
Continuous
 62
     1
100
AcDbCircle
 10
272.263690167
 20
407.5
 30
0.0
 40
0.8
100
AcDbArc
 50
90.0
 51
180.0
  0
LINE
  5
44B
330
1F
100
AcDbEntity
  8
0
  6
Continuous
 62
     1
100
AcDbLine
 10
271.463690167
 20
412.5
 30
0.0
 11
271.463690167
 21
439.705938377
 31
0.0
  0
LWPOLYLINE
  5
44D
330
1F
100
AcDbEntity
  8
0
  6
Continuous
 62
     1
100
AcDbPolyline
 90
     3
 70
   128
 43
0.0
 10
271.463690167
 20
412.5
 42
0.414213562
 10
272.263690167
 20
411.7
 42
0.0
 10
272.263690167
 20
411.7
 42
0.0
  0
LINE
  5
44E
330
1F
100
AcDbEntity
  8
0
  6
Continuous
 62
     1
100
AcDbLine
 10
273.063690167
 20
412.5
 30
0.0
 11
273.063690167
 21
412.7
 31
0.0
  0
ARC
  5
44F
330
1F
100
AcDbEntity
  8
0
  6
Continuous
 62
     1
100
AcDbCircle
 10
272.263690167
 20
412.5
 30
0.0
 40
0.8
100
AcDbArc
 50
270.0
 51
0.0
  0
LINE
  5
450
330
1F
100
AcDbEntity
  8
0
  6
Continuous
 62
     1
100
AcDbLine
 10
272.263690167
 20
408.3
 30
0.0
 11
272.263690167
 21
408.3
 31
0.0
  0
LINE
  5
451
330
1F
100
AcDbEntity
  8
0
  6
Continuous
 62
     1
100
AcDbLine
 10
273.063690167
 20
407.5
 30
0.0
 11
273.063690167
 21
407.3
 31
0.0
  0
ARC
  5
452
330
1F
100
AcDbEntity
  8
0
  6
Continuous
 62
     1
100
AcDbCircle
 10
272.263690167
 20
407.5
 30
0.0
 40
0.8
100
AcDbArc
 50
0.0
 51
90.0
  0
LINE
  5
453
330
1F
100
AcDbEntity
  8
0
  6
Continuous
 62
     1
100
AcDbLine
 10
274.663690167
 20
330.0
 30
0.0
 11
274.663690167
 21
299.1
 31
0.0
  0
LWPOLYLINE
  5
455
330
1F
100
AcDbEntity
  8
0
  6
Continuous
 62
     1
100
AcDbPolyline
 90
     4
 70
   129
 43
0.0
 10
274.843690167
 20
290.25
 10
274.843690167
 20
298.25
 10
274.343690167
 20
298.25
 10
274.343690167
 20
290.25
  0
LINE
  5
456
330
1F
100
AcDbEntity
  8
0
  6
Continuous
 62
     1
100
AcDbLine
 10
273.643690167
 20
297.25
 30
0.0
 11
274.343690167
 21
297.25
 31
0.0
  0
LWPOLYLINE
  5
458
330
1F
100
AcDbEntity
  8
0
  6
Continuous
 62
     1
100
AcDbPolyline
 90
     3
 70
   128
 43
0.0
 10
274.343690167
 20
291.25
 10
273.643690167
 20
291.25
 10
273.643690167
 20
297.25
  0
LINE
  5
459
330
1F
100
AcDbEntity
  8
0
  6
Continuous
 62
     1
100
AcDbLine
 10
274.343690167
 20
294.65
 30
0.0
 11
273.643690167
 21
293.85
 31
0.0
  0
ARC
  5
45A
330
1F
100
AcDbEntity
  8
0
  6
Continuous
 62
     1
100
AcDbCircle
 10
273.643690167
 20
293.25
 30
0.0
 40
2.0
100
AcDbArc
 50
180.0
 51
270.0
  0
ARC
  5
45B
330
1F
100
AcDbEntity
  8
0
  6
Continuous
 62
     1
100
AcDbCircle
 10
273.643690167
 20
295.25
 30
0.0
 40
2.0
100
AcDbArc
 50
90.0
 51
180.0
  0
LINE
  5
45C
330
1F
100
AcDbEntity
  8
0
  6
Continuous
 62
     1
100
AcDbLine
 10
271.643690167
 20
295.25
 30
0.0
 11
271.643690167
 21
293.25
 31
0.0
  0
LINE
  5
45D
330
1F
100
AcDbEntity
  8
0
  6
Continuous
 62
     1
100
AcDbLine
 10
271.643690167
 20
294.25
 30
0.0
 11
272.843690167
 21
293.05
 31
0.0
  0
LINE
  5
45E
330
1F
100
AcDbEntity
  8
0
  6
Continuous
 62
     1
100
AcDbLine
 10
271.643690167
 20
294.25
 30
0.0
 11
272.843690167
 21
295.45
 31
0.0
  0
LINE
  5
45F
330
1F
100
AcDbEntity
  8
0
  6
Continuous
 62
     1
100
AcDbLine
 10
273.063690167
 20
298.1
 30
0.0
 11
273.063690167
 21
297.1
 31
0.0
  0
ARC
  5
460
330
1F
100
AcDbEntity
  8
0
  6
Continuous
 62
     1
100
AcDbCircle
 10
275.663690167
 20
291.3
 30
0.0
 40
0.8
100
AcDbArc
 50
270.0
 51
0.0
  0
LINE
  5
461
330
1F
100
AcDbEntity
  8
0
  6
Continuous
 62
     1
100
AcDbLine
 10
275.663690167
 20
290.5
 30
0.0
 11
275.663690167
 21
290.5
 31
0.0
  0
LINE
  5
462
330
1F
100
AcDbEntity
  8
0
  6
Continuous
 62
     1
100
AcDbLine
 10
274.863690167
 20
296.0
 30
0.0
 11
274.863690167
 21
291.3
 31
0.0
  0
ARC
  5
463
330
1F
100
AcDbEntity
  8
0
  6
Continuous
 62
     1
100
AcDbCircle
 10
275.663690167
 20
291.3
 30
0.0
 40
0.8
100
AcDbArc
 50
180.0
 51
270.0
  0
LINE
  5
464
330
1F
100
AcDbEntity
  8
0
  6
Continuous
 62
     1
100
AcDbLine
 10
276.463690167
 20
291.3
 30
0.0
 11
276.463690167
 21
296.705938377
 31
0.0
  0
ARC
  5
465
330
1F
100
AcDbEntity
  8
0
  6
Continuous
 62
     1
100
AcDbCircle
 10
275.663690167
 20
296.705938377
 30
0.0
 40
0.8
100
AcDbArc
 50
0.0
 51
40.364536573
  0
LINE
  5
466
330
1F
100
AcDbEntity
  8
0
  6
Continuous
 62
     1
100
AcDbLine
 10
273.063690167
 20
301.294061623
 30
0.0
 11
273.063690167
 21
330.0
 31
0.0
  0
LINE
  5
467
330
1F
100
AcDbEntity
  8
0
  6
Continuous
 62
     1
100
AcDbLine
 10
276.273241622
 20
297.224057113
 30
0.0
 11
273.254138713
 21
300.775942887
 31
0.0
  0
ARC
  5
468
330
1F
100
AcDbEntity
  8
0
  6
Continuous
 62
     1
100
AcDbCircle
 10
273.863690167
 20
301.294061623
 30
0.0
 40
0.8
100
AcDbArc
 50
180.0
 51
220.364536573
  0
LINE
  5
469
330
1F
100
AcDbEntity
  8
0
  6
Continuous
 62
     1
100
AcDbLine
 10
271.654138713
 20
299.775942887
 30
0.0
 11
273.784190167
 21
297.27
 31
0.0
  0
ARC
  5
46A
330
1F
100
AcDbEntity
  8
0
  6
Continuous
 62
     1
100
AcDbCircle
 10
272.263690167
 20
300.294061623
 30
0.0
 40
0.8
100
AcDbArc
 50
180.0
 51
220.364536573
  0
LINE
  5
46B
330
1F
100
AcDbEntity
  8
0
  6
Continuous
 62
     1
100
AcDbLine
 10
274.663690167
 20
330.0
 30
0.0
 11
274.663690167
 21
360.9
 31
0.0
  0
LWPOLYLINE
  5
46D
330
1F
100
AcDbEntity
  8
0
  6
Continuous
 62
     1
100
AcDbPolyline
 90
     4
 70
   129
 43
0.0
 10
274.843690167
 20
369.75
 10
274.843690167
 20
361.75
 10
274.343690167
 20
361.75
 10
274.343690167
 20
369.75
  0
LINE
  5
46E
330
1F
100
AcDbEntity
  8
0
  6
Continuous
 62
     1
100
AcDbLine
 10
273.643690167
 20
362.75
 30
0.0
 11
274.343690167
 21
362.75
 31
0.0
  0
LWPOLYLINE
  5
470
330
1F
100
AcDbEntity
  8
0
  6
Continuous
 62
     1
100
AcDbPolyline
 90
     3
 70
   128
 43
0.0
 10
274.343690167
 20
368.75
 10
273.643690167
 20
368.75
 10
273.643690167
 20
362.75
  0
LINE
  5
471
330
1F
100
AcDbEntity
  8
0
  6
Continuous
 62
     1
100
AcDbLine
 10
274.343690167
 20
365.35
 30
0.0
 11
273.643690167
 21
366.15
 31
0.0
  0
ARC
  5
472
330
1F
100
AcDbEntity
  8
0
  6
Continuous
 62
     1
100
AcDbCircle
 10
273.643690167
 20
366.75
 30
0.0
 40
2.0
100
AcDbArc
 50
90.0
 51
180.0
  0
ARC
  5
473
330
1F
100
AcDbEntity
  8
0
  6
Continuous
 62
     1
100
AcDbCircle
 10
273.643690167
 20
364.75
 30
0.0
 40
2.0
100
AcDbArc
 50
180.0
 51
270.0
  0
LINE
  5
474
330
1F
100
AcDbEntity
  8
0
  6
Continuous
 62
     1
100
AcDbLine
 10
271.643690167
 20
364.75
 30
0.0
 11
271.643690167
 21
366.75
 31
0.0
  0
LINE
  5
475
330
1F
100
AcDbEntity
  8
0
  6
Continuous
 62
     1
100
AcDbLine
 10
271.643690167
 20
365.75
 30
0.0
 11
272.843690167
 21
366.95
 31
0.0
  0
LINE
  5
476
330
1F
100
AcDbEntity
  8
0
  6
Continuous
 62
     1
100
AcDbLine
 10
271.643690167
 20
365.75
 30
0.0
 11
272.843690167
 21
364.55
 31
0.0
  0
LINE
  5
477
330
1F
100
AcDbEntity
  8
0
  6
Continuous
 62
     1
100
AcDbLine
 10
273.063690167
 20
361.9
 30
0.0
 11
273.063690167
 21
362.9
 31
0.0
  0
ARC
  5
478
330
1F
100
AcDbEntity
  8
0
  6
Continuous
 62
     1
100
AcDbCircle
 10
275.663690167
 20
368.7
 30
0.0
 40
0.8
100
AcDbArc
 50
0.0
 51
90.0
  0
LINE
  5
479
330
1F
100
AcDbEntity
  8
0
  6
Continuous
 62
     1
100
AcDbLine
 10
275.663690167
 20
369.5
 30
0.0
 11
275.663690167
 21
369.5
 31
0.0
  0
LINE
  5
47A
330
1F
100
AcDbEntity
  8
0
  6
Continuous
 62
     1
100
AcDbLine
 10
274.863690167
 20
364.0
 30
0.0
 11
274.863690167
 21
368.7
 31
0.0
  0
ARC
  5
47B
330
1F
100
AcDbEntity
  8
0
  6
Continuous
 62
     1
100
AcDbCircle
 10
275.663690167
 20
368.7
 30
0.0
 40
0.8
100
AcDbArc
 50
90.0
 51
180.0
  0
LINE
  5
47C
330
1F
100
AcDbEntity
  8
0
  6
Continuous
 62
     1
100
AcDbLine
 10
276.463690167
 20
368.7
 30
0.0
 11
276.463690167
 21
363.294061623
 31
0.0
  0
ARC
  5
47D
330
1F
100
AcDbEntity
  8
0
  6
Continuous
 62
     1
100
AcDbCircle
 10
275.663690167
 20
363.294061623
 30
0.0
 40
0.8
100
AcDbArc
 50
319.635463427
 51
0.0
  0
LINE
  5
47E
330
1F
100
AcDbEntity
  8
0
  6
Continuous
 62
     1
100
AcDbLine
 10
273.063690167
 20
358.705938377
 30
0.0
 11
273.063690167
 21
330.0
 31
0.0
  0
LINE
  5
47F
330
1F
100
AcDbEntity
  8
0
  6
Continuous
 62
     1
100
AcDbLine
 10
276.273241622
 20
362.775942887
 30
0.0
 11
273.254138713
 21
359.224057113
 31
0.0
  0
ARC
  5
480
330
1F
100
AcDbEntity
  8
0
  6
Continuous
 62
     1
100
AcDbCircle
 10
273.863690167
 20
358.705938377
 30
0.0
 40
0.8
100
AcDbArc
 50
139.635463427
 51
180.0
  0
LINE
  5
481
330
1F
100
AcDbEntity
  8
0
  6
Continuous
 62
     1
100
AcDbLine
 10
271.654138713
 20
360.224057113
 30
0.0
 11
273.784190167
 21
362.73
 31
0.0
  0
ARC
  5
482
330
1F
100
AcDbEntity
  8
0
  6
Continuous
 62
     1
100
AcDbCircle
 10
272.263690167
 20
359.705938377
 30
0.0
 40
0.8
100
AcDbArc
 50
139.635463427
 51
180.0
  0
LINE
  5
483
330
1F
100
AcDbEntity
  8
0
  6
Continuous
 62
     1
100
AcDbLine
 10
271.463690167
 20
332.5
 30
0.0
 11
271.463690167
 21
359.705938377
 31
0.0
  0
ARC
  5
484
330
1F
100
AcDbEntity
  8
0
  6
Continuous
 62
     1
100
AcDbCircle
 10
272.263690167
 20
332.5
 30
0.0
 40
0.8
100
AcDbArc
 50
180.0
 51
270.0
  0
LINE
  5
485
330
1F
100
AcDbEntity
  8
0
  6
Continuous
 62
     1
100
AcDbLine
 10
271.463690167
 20
327.5
 30
0.0
 11
271.463690167
 21
300.294061623
 31
0.0
  0
LWPOLYLINE
  5
487
330
1F
100
AcDbEntity
  8
0
  6
Continuous
 62
     1
100
AcDbPolyline
 90
     3
 70
   128
 43
0.0
 10
271.463690167
 20
327.5
 42
-0.414213562
 10
272.263690167
 20
328.3
 42
0.0
 10
272.263690167
 20
328.3
 42
0.0
  0
LINE
  5
488
330
1F
100
AcDbEntity
  8
0
  6
Continuous
 62
     1
100
AcDbLine
 10
273.063690167
 20
327.5
 30
0.0
 11
273.063690167
 21
327.3
 31
0.0
  0
ARC
  5
489
330
1F
100
AcDbEntity
  8
0
  6
Continuous
 62
     1
100
AcDbCircle
 10
272.263690167
 20
327.5
 30
0.0
 40
0.8
100
AcDbArc
 50
360.0
 51
90.0
  0
LINE
  5
48A
330
1F
100
AcDbEntity
  8
0
  6
Continuous
 62
     1
100
AcDbLine
 10
272.263690167
 20
331.7
 30
0.0
 11
272.263690167
 21
331.7
 31
0.0
  0
LINE
  5
48B
330
1F
100
AcDbEntity
  8
0
  6
Continuous
 62
     1
100
AcDbLine
 10
273.063690167
 20
332.5
 30
0.0
 11
273.063690167
 21
332.7
 31
0.0
  0
ARC
  5
48C
330
1F
100
AcDbEntity
  8
0
  6
Continuous
 62
     1
100
AcDbCircle
 10
272.263690167
 20
332.5
 30
0.0
 40
0.8
100
AcDbArc
 50
270.0
 51
0.0
  0
LINE
  5
48D
330
1F
100
AcDbEntity
  8
0
  6
Continuous
 62
     1
100
AcDbLine
 10
274.663690167
 20
330.0
 30
0.0
 11
274.663690167
 21
299.1
 31
0.0
  0
LWPOLYLINE
  5
48F
330
1F
100
AcDbEntity
  8
0
  6
Continuous
 62
     1
100
AcDbPolyline
 90
     4
 70
   129
 43
0.0
 10
274.843690167
 20
290.25
 10
274.843690167
 20
298.25
 10
274.343690167
 20
298.25
 10
274.343690167
 20
290.25
  0
LINE
  5
490
330
1F
100
AcDbEntity
  8
0
  6
Continuous
 62
     1
100
AcDbLine
 10
273.643690167
 20
297.25
 30
0.0
 11
274.343690167
 21
297.25
 31
0.0
  0
LWPOLYLINE
  5
492
330
1F
100
AcDbEntity
  8
0
  6
Continuous
 62
     1
100
AcDbPolyline
 90
     3
 70
   128
 43
0.0
 10
274.343690167
 20
291.25
 10
273.643690167
 20
291.25
 10
273.643690167
 20
297.25
  0
LINE
  5
493
330
1F
100
AcDbEntity
  8
0
  6
Continuous
 62
     1
100
AcDbLine
 10
274.343690167
 20
294.65
 30
0.0
 11
273.643690167
 21
293.85
 31
0.0
  0
ARC
  5
494
330
1F
100
AcDbEntity
  8
0
  6
Continuous
 62
     1
100
AcDbCircle
 10
273.643690167
 20
293.25
 30
0.0
 40
2.0
100
AcDbArc
 50
180.0
 51
270.0
  0
ARC
  5
495
330
1F
100
AcDbEntity
  8
0
  6
Continuous
 62
     1
100
AcDbCircle
 10
273.643690167
 20
295.25
 30
0.0
 40
2.0
100
AcDbArc
 50
90.0
 51
180.0
  0
LINE
  5
496
330
1F
100
AcDbEntity
  8
0
  6
Continuous
 62
     1
100
AcDbLine
 10
271.643690167
 20
295.25
 30
0.0
 11
271.643690167
 21
293.25
 31
0.0
  0
LINE
  5
497
330
1F
100
AcDbEntity
  8
0
  6
Continuous
 62
     1
100
AcDbLine
 10
271.643690167
 20
294.25
 30
0.0
 11
272.843690167
 21
293.05
 31
0.0
  0
LINE
  5
498
330
1F
100
AcDbEntity
  8
0
  6
Continuous
 62
     1
100
AcDbLine
 10
271.643690167
 20
294.25
 30
0.0
 11
272.843690167
 21
295.45
 31
0.0
  0
LINE
  5
499
330
1F
100
AcDbEntity
  8
0
  6
Continuous
 62
     1
100
AcDbLine
 10
273.063690167
 20
298.1
 30
0.0
 11
273.063690167
 21
297.1
 31
0.0
  0
ARC
  5
49A
330
1F
100
AcDbEntity
  8
0
  6
Continuous
 62
     1
100
AcDbCircle
 10
275.663690167
 20
291.3
 30
0.0
 40
0.8
100
AcDbArc
 50
270.0
 51
0.0
  0
LINE
  5
49B
330
1F
100
AcDbEntity
  8
0
  6
Continuous
 62
     1
100
AcDbLine
 10
275.663690167
 20
290.5
 30
0.0
 11
275.663690167
 21
290.5
 31
0.0
  0
LINE
  5
49C
330
1F
100
AcDbEntity
  8
0
  6
Continuous
 62
     1
100
AcDbLine
 10
274.863690167
 20
296.0
 30
0.0
 11
274.863690167
 21
291.3
 31
0.0
  0
ARC
  5
49D
330
1F
100
AcDbEntity
  8
0
  6
Continuous
 62
     1
100
AcDbCircle
 10
275.663690167
 20
291.3
 30
0.0
 40
0.8
100
AcDbArc
 50
180.0
 51
270.0
  0
LINE
  5
49E
330
1F
100
AcDbEntity
  8
0
  6
Continuous
 62
     1
100
AcDbLine
 10
276.463690167
 20
291.3
 30
0.0
 11
276.463690167
 21
296.705938377
 31
0.0
  0
ARC
  5
49F
330
1F
100
AcDbEntity
  8
0
  6
Continuous
 62
     1
100
AcDbCircle
 10
275.663690167
 20
296.705938377
 30
0.0
 40
0.8
100
AcDbArc
 50
0.0
 51
40.364536573
  0
LINE
  5
4A0
330
1F
100
AcDbEntity
  8
0
  6
Continuous
 62
     1
100
AcDbLine
 10
273.063690167
 20
301.294061623
 30
0.0
 11
273.063690167
 21
330.0
 31
0.0
  0
LINE
  5
4A1
330
1F
100
AcDbEntity
  8
0
  6
Continuous
 62
     1
100
AcDbLine
 10
276.273241622
 20
297.224057113
 30
0.0
 11
273.254138713
 21
300.775942887
 31
0.0
  0
ARC
  5
4A2
330
1F
100
AcDbEntity
  8
0
  6
Continuous
 62
     1
100
AcDbCircle
 10
273.863690167
 20
301.294061623
 30
0.0
 40
0.8
100
AcDbArc
 50
180.0
 51
220.364536573
  0
LINE
  5
4A3
330
1F
100
AcDbEntity
  8
0
  6
Continuous
 62
     1
100
AcDbLine
 10
271.654138713
 20
299.775942887
 30
0.0
 11
273.784190167
 21
297.27
 31
0.0
  0
ARC
  5
4A4
330
1F
100
AcDbEntity
  8
0
  6
Continuous
 62
     1
100
AcDbCircle
 10
272.263690167
 20
300.294061623
 30
0.0
 40
0.8
100
AcDbArc
 50
180.0
 51
220.364536573
  0
LINE
  5
4A5
330
1F
100
AcDbEntity
  8
0
  6
Continuous
 62
     1
100
AcDbLine
 10
274.663690167
 20
330.0
 30
0.0
 11
274.663690167
 21
360.9
 31
0.0
  0
LWPOLYLINE
  5
4A7
330
1F
100
AcDbEntity
  8
0
  6
Continuous
 62
     1
100
AcDbPolyline
 90
     4
 70
   129
 43
0.0
 10
274.843690167
 20
369.75
 10
274.843690167
 20
361.75
 10
274.343690167
 20
361.75
 10
274.343690167
 20
369.75
  0
LINE
  5
4A8
330
1F
100
AcDbEntity
  8
0
  6
Continuous
 62
     1
100
AcDbLine
 10
273.643690167
 20
362.75
 30
0.0
 11
274.343690167
 21
362.75
 31
0.0
  0
LWPOLYLINE
  5
4AA
330
1F
100
AcDbEntity
  8
0
  6
Continuous
 62
     1
100
AcDbPolyline
 90
     3
 70
   128
 43
0.0
 10
274.343690167
 20
368.75
 10
273.643690167
 20
368.75
 10
273.643690167
 20
362.75
  0
LINE
  5
4AB
330
1F
100
AcDbEntity
  8
0
  6
Continuous
 62
     1
100
AcDbLine
 10
274.343690167
 20
365.35
 30
0.0
 11
273.643690167
 21
366.15
 31
0.0
  0
ARC
  5
4AC
330
1F
100
AcDbEntity
  8
0
  6
Continuous
 62
     1
100
AcDbCircle
 10
273.643690167
 20
366.75
 30
0.0
 40
2.0
100
AcDbArc
 50
90.0
 51
180.0
  0
ARC
  5
4AD
330
1F
100
AcDbEntity
  8
0
  6
Continuous
 62
     1
100
AcDbCircle
 10
273.643690167
 20
364.75
 30
0.0
 40
2.0
100
AcDbArc
 50
180.0
 51
270.0
  0
LINE
  5
4AE
330
1F
100
AcDbEntity
  8
0
  6
Continuous
 62
     1
100
AcDbLine
 10
271.643690167
 20
364.75
 30
0.0
 11
271.643690167
 21
366.75
 31
0.0
  0
LINE
  5
4AF
330
1F
100
AcDbEntity
  8
0
  6
Continuous
 62
     1
100
AcDbLine
 10
271.643690167
 20
365.75
 30
0.0
 11
272.843690167
 21
366.95
 31
0.0
  0
LINE
  5
4B0
330
1F
100
AcDbEntity
  8
0
  6
Continuous
 62
     1
100
AcDbLine
 10
271.643690167
 20
365.75
 30
0.0
 11
272.843690167
 21
364.55
 31
0.0
  0
LINE
  5
4B1
330
1F
100
AcDbEntity
  8
0
  6
Continuous
 62
     1
100
AcDbLine
 10
273.063690167
 20
361.9
 30
0.0
 11
273.063690167
 21
362.9
 31
0.0
  0
ARC
  5
4B2
330
1F
100
AcDbEntity
  8
0
  6
Continuous
 62
     1
100
AcDbCircle
 10
275.663690167
 20
368.7
 30
0.0
 40
0.8
100
AcDbArc
 50
0.0
 51
90.0
  0
LINE
  5
4B3
330
1F
100
AcDbEntity
  8
0
  6
Continuous
 62
     1
100
AcDbLine
 10
275.663690167
 20
369.5
 30
0.0
 11
275.663690167
 21
369.5
 31
0.0
  0
LINE
  5
4B4
330
1F
100
AcDbEntity
  8
0
  6
Continuous
 62
     1
100
AcDbLine
 10
274.863690167
 20
364.0
 30
0.0
 11
274.863690167
 21
368.7
 31
0.0
  0
ARC
  5
4B5
330
1F
100
AcDbEntity
  8
0
  6
Continuous
 62
     1
100
AcDbCircle
 10
275.663690167
 20
368.7
 30
0.0
 40
0.8
100
AcDbArc
 50
90.0
 51
180.0
  0
LINE
  5
4B6
330
1F
100
AcDbEntity
  8
0
  6
Continuous
 62
     1
100
AcDbLine
 10
276.463690167
 20
368.7
 30
0.0
 11
276.463690167
 21
363.294061623
 31
0.0
  0
ARC
  5
4B7
330
1F
100
AcDbEntity
  8
0
  6
Continuous
 62
     1
100
AcDbCircle
 10
275.663690167
 20
363.294061623
 30
0.0
 40
0.8
100
AcDbArc
 50
319.635463427
 51
0.0
  0
LINE
  5
4B8
330
1F
100
AcDbEntity
  8
0
  6
Continuous
 62
     1
100
AcDbLine
 10
273.063690167
 20
358.705938377
 30
0.0
 11
273.063690167
 21
330.0
 31
0.0
  0
LINE
  5
4B9
330
1F
100
AcDbEntity
  8
0
  6
Continuous
 62
     1
100
AcDbLine
 10
276.273241622
 20
362.775942887
 30
0.0
 11
273.254138713
 21
359.224057113
 31
0.0
  0
ARC
  5
4BA
330
1F
100
AcDbEntity
  8
0
  6
Continuous
 62
     1
100
AcDbCircle
 10
273.863690167
 20
358.705938377
 30
0.0
 40
0.8
100
AcDbArc
 50
139.635463427
 51
180.0
  0
LINE
  5
4BB
330
1F
100
AcDbEntity
  8
0
  6
Continuous
 62
     1
100
AcDbLine
 10
271.654138713
 20
360.224057113
 30
0.0
 11
273.784190167
 21
362.73
 31
0.0
  0
ARC
  5
4BC
330
1F
100
AcDbEntity
  8
0
  6
Continuous
 62
     1
100
AcDbCircle
 10
272.263690167
 20
359.705938377
 30
0.0
 40
0.8
100
AcDbArc
 50
139.635463427
 51
180.0
  0
LINE
  5
4BD
330
1F
100
AcDbEntity
  8
0
  6
Continuous
 62
     1
100
AcDbLine
 10
271.463690167
 20
332.5
 30
0.0
 11
271.463690167
 21
359.705938377
 31
0.0
  0
ARC
  5
4BE
330
1F
100
AcDbEntity
  8
0
  6
Continuous
 62
     1
100
AcDbCircle
 10
272.263690167
 20
332.5
 30
0.0
 40
0.8
100
AcDbArc
 50
180.0
 51
270.0
  0
LINE
  5
4BF
330
1F
100
AcDbEntity
  8
0
  6
Continuous
 62
     1
100
AcDbLine
 10
271.463690167
 20
327.5
 30
0.0
 11
271.463690167
 21
300.294061623
 31
0.0
  0
LWPOLYLINE
  5
4C1
330
1F
100
AcDbEntity
  8
0
  6
Continuous
 62
     1
100
AcDbPolyline
 90
     3
 70
   128
 43
0.0
 10
271.463690167
 20
327.5
 42
-0.414213562
 10
272.263690167
 20
328.3
 42
0.0
 10
272.263690167
 20
328.3
 42
0.0
  0
LINE
  5
4C2
330
1F
100
AcDbEntity
  8
0
  6
Continuous
 62
     1
100
AcDbLine
 10
273.063690167
 20
327.5
 30
0.0
 11
273.063690167
 21
327.3
 31
0.0
  0
ARC
  5
4C3
330
1F
100
AcDbEntity
  8
0
  6
Continuous
 62
     1
100
AcDbCircle
 10
272.263690167
 20
327.5
 30
0.0
 40
0.8
100
AcDbArc
 50
360.0
 51
90.0
  0
LINE
  5
4C4
330
1F
100
AcDbEntity
  8
0
  6
Continuous
 62
     1
100
AcDbLine
 10
272.263690167
 20
331.7
 30
0.0
 11
272.263690167
 21
331.7
 31
0.0
  0
LINE
  5
4C5
330
1F
100
AcDbEntity
  8
0
  6
Continuous
 62
     1
100
AcDbLine
 10
273.063690167
 20
332.5
 30
0.0
 11
273.063690167
 21
332.7
 31
0.0
  0
ARC
  5
4C6
330
1F
100
AcDbEntity
  8
0
  6
Continuous
 62
     1
100
AcDbCircle
 10
272.263690167
 20
332.5
 30
0.0
 40
0.8
100
AcDbArc
 50
270.0
 51
0.0
  0
LINE
  5
4C7
330
1F
100
AcDbEntity
  8
0
  6
Continuous
 62
     1
100
AcDbLine
 10
274.663690167
 20
330.0
 30
0.0
 11
274.663690167
 21
299.1
 31
0.0
  0
LWPOLYLINE
  5
4C9
330
1F
100
AcDbEntity
  8
0
  6
Continuous
 62
     1
100
AcDbPolyline
 90
     4
 70
   129
 43
0.0
 10
274.843690167
 20
290.25
 10
274.843690167
 20
298.25
 10
274.343690167
 20
298.25
 10
274.343690167
 20
290.25
  0
LINE
  5
4CA
330
1F
100
AcDbEntity
  8
0
  6
Continuous
 62
     1
100
AcDbLine
 10
273.643690167
 20
297.25
 30
0.0
 11
274.343690167
 21
297.25
 31
0.0
  0
LWPOLYLINE
  5
4CC
330
1F
100
AcDbEntity
  8
0
  6
Continuous
 62
     1
100
AcDbPolyline
 90
     3
 70
   128
 43
0.0
 10
274.343690167
 20
291.25
 10
273.643690167
 20
291.25
 10
273.643690167
 20
297.25
  0
LINE
  5
4CD
330
1F
100
AcDbEntity
  8
0
  6
Continuous
 62
     1
100
AcDbLine
 10
274.343690167
 20
294.65
 30
0.0
 11
273.643690167
 21
293.85
 31
0.0
  0
ARC
  5
4CE
330
1F
100
AcDbEntity
  8
0
  6
Continuous
 62
     1
100
AcDbCircle
 10
273.643690167
 20
293.25
 30
0.0
 40
2.0
100
AcDbArc
 50
180.0
 51
270.0
  0
ARC
  5
4CF
330
1F
100
AcDbEntity
  8
0
  6
Continuous
 62
     1
100
AcDbCircle
 10
273.643690167
 20
295.25
 30
0.0
 40
2.0
100
AcDbArc
 50
90.0
 51
180.0
  0
LINE
  5
4D0
330
1F
100
AcDbEntity
  8
0
  6
Continuous
 62
     1
100
AcDbLine
 10
271.643690167
 20
295.25
 30
0.0
 11
271.643690167
 21
293.25
 31
0.0
  0
LINE
  5
4D1
330
1F
100
AcDbEntity
  8
0
  6
Continuous
 62
     1
100
AcDbLine
 10
271.643690167
 20
294.25
 30
0.0
 11
272.843690167
 21
293.05
 31
0.0
  0
LINE
  5
4D2
330
1F
100
AcDbEntity
  8
0
  6
Continuous
 62
     1
100
AcDbLine
 10
271.643690167
 20
294.25
 30
0.0
 11
272.843690167
 21
295.45
 31
0.0
  0
LINE
  5
4D3
330
1F
100
AcDbEntity
  8
0
  6
Continuous
 62
     1
100
AcDbLine
 10
273.063690167
 20
298.1
 30
0.0
 11
273.063690167
 21
297.1
 31
0.0
  0
ARC
  5
4D4
330
1F
100
AcDbEntity
  8
0
  6
Continuous
 62
     1
100
AcDbCircle
 10
275.663690167
 20
291.3
 30
0.0
 40
0.8
100
AcDbArc
 50
270.0
 51
0.0
  0
LINE
  5
4D5
330
1F
100
AcDbEntity
  8
0
  6
Continuous
 62
     1
100
AcDbLine
 10
275.663690167
 20
290.5
 30
0.0
 11
275.663690167
 21
290.5
 31
0.0
  0
LINE
  5
4D6
330
1F
100
AcDbEntity
  8
0
  6
Continuous
 62
     1
100
AcDbLine
 10
274.863690167
 20
296.0
 30
0.0
 11
274.863690167
 21
291.3
 31
0.0
  0
ARC
  5
4D7
330
1F
100
AcDbEntity
  8
0
  6
Continuous
 62
     1
100
AcDbCircle
 10
275.663690167
 20
291.3
 30
0.0
 40
0.8
100
AcDbArc
 50
180.0
 51
270.0
  0
LINE
  5
4D8
330
1F
100
AcDbEntity
  8
0
  6
Continuous
 62
     1
100
AcDbLine
 10
276.463690167
 20
291.3
 30
0.0
 11
276.463690167
 21
296.705938377
 31
0.0
  0
ARC
  5
4D9
330
1F
100
AcDbEntity
  8
0
  6
Continuous
 62
     1
100
AcDbCircle
 10
275.663690167
 20
296.705938377
 30
0.0
 40
0.8
100
AcDbArc
 50
0.0
 51
40.364536573
  0
LINE
  5
4DA
330
1F
100
AcDbEntity
  8
0
  6
Continuous
 62
     1
100
AcDbLine
 10
273.063690167
 20
301.294061623
 30
0.0
 11
273.063690167
 21
330.0
 31
0.0
  0
LINE
  5
4DB
330
1F
100
AcDbEntity
  8
0
  6
Continuous
 62
     1
100
AcDbLine
 10
276.273241622
 20
297.224057113
 30
0.0
 11
273.254138713
 21
300.775942887
 31
0.0
  0
ARC
  5
4DC
330
1F
100
AcDbEntity
  8
0
  6
Continuous
 62
     1
100
AcDbCircle
 10
273.863690167
 20
301.294061623
 30
0.0
 40
0.8
100
AcDbArc
 50
180.0
 51
220.364536573
  0
LINE
  5
4DD
330
1F
100
AcDbEntity
  8
0
  6
Continuous
 62
     1
100
AcDbLine
 10
271.654138713
 20
299.775942887
 30
0.0
 11
273.784190167
 21
297.27
 31
0.0
  0
ARC
  5
4DE
330
1F
100
AcDbEntity
  8
0
  6
Continuous
 62
     1
100
AcDbCircle
 10
272.263690167
 20
300.294061623
 30
0.0
 40
0.8
100
AcDbArc
 50
180.0
 51
220.364536573
  0
LINE
  5
4DF
330
1F
100
AcDbEntity
  8
0
  6
Continuous
 62
     1
100
AcDbLine
 10
274.663690167
 20
330.0
 30
0.0
 11
274.663690167
 21
360.9
 31
0.0
  0
LWPOLYLINE
  5
4E1
330
1F
100
AcDbEntity
  8
0
  6
Continuous
 62
     1
100
AcDbPolyline
 90
     4
 70
   129
 43
0.0
 10
274.843690167
 20
369.75
 10
274.843690167
 20
361.75
 10
274.343690167
 20
361.75
 10
274.343690167
 20
369.75
  0
LINE
  5
4E2
330
1F
100
AcDbEntity
  8
0
  6
Continuous
 62
     1
100
AcDbLine
 10
273.643690167
 20
362.75
 30
0.0
 11
274.343690167
 21
362.75
 31
0.0
  0
LWPOLYLINE
  5
4E4
330
1F
100
AcDbEntity
  8
0
  6
Continuous
 62
     1
100
AcDbPolyline
 90
     3
 70
   128
 43
0.0
 10
274.343690167
 20
368.75
 10
273.643690167
 20
368.75
 10
273.643690167
 20
362.75
  0
LINE
  5
4E5
330
1F
100
AcDbEntity
  8
0
  6
Continuous
 62
     1
100
AcDbLine
 10
274.343690167
 20
365.35
 30
0.0
 11
273.643690167
 21
366.15
 31
0.0
  0
ARC
  5
4E6
330
1F
100
AcDbEntity
  8
0
  6
Continuous
 62
     1
100
AcDbCircle
 10
273.643690167
 20
366.75
 30
0.0
 40
2.0
100
AcDbArc
 50
90.0
 51
180.0
  0
ARC
  5
4E7
330
1F
100
AcDbEntity
  8
0
  6
Continuous
 62
     1
100
AcDbCircle
 10
273.643690167
 20
364.75
 30
0.0
 40
2.0
100
AcDbArc
 50
180.0
 51
270.0
  0
LINE
  5
4E8
330
1F
100
AcDbEntity
  8
0
  6
Continuous
 62
     1
100
AcDbLine
 10
271.643690167
 20
364.75
 30
0.0
 11
271.643690167
 21
366.75
 31
0.0
  0
LINE
  5
4E9
330
1F
100
AcDbEntity
  8
0
  6
Continuous
 62
     1
100
AcDbLine
 10
271.643690167
 20
365.75
 30
0.0
 11
272.843690167
 21
366.95
 31
0.0
  0
LINE
  5
4EA
330
1F
100
AcDbEntity
  8
0
  6
Continuous
 62
     1
100
AcDbLine
 10
271.643690167
 20
365.75
 30
0.0
 11
272.843690167
 21
364.55
 31
0.0
  0
LINE
  5
4EB
330
1F
100
AcDbEntity
  8
0
  6
Continuous
 62
     1
100
AcDbLine
 10
273.063690167
 20
361.9
 30
0.0
 11
273.063690167
 21
362.9
 31
0.0
  0
ARC
  5
4EC
330
1F
100
AcDbEntity
  8
0
  6
Continuous
 62
     1
100
AcDbCircle
 10
275.663690167
 20
368.7
 30
0.0
 40
0.8
100
AcDbArc
 50
0.0
 51
90.0
  0
LINE
  5
4ED
330
1F
100
AcDbEntity
  8
0
  6
Continuous
 62
     1
100
AcDbLine
 10
275.663690167
 20
369.5
 30
0.0
 11
275.663690167
 21
369.5
 31
0.0
  0
LINE
  5
4EE
330
1F
100
AcDbEntity
  8
0
  6
Continuous
 62
     1
100
AcDbLine
 10
274.863690167
 20
364.0
 30
0.0
 11
274.863690167
 21
368.7
 31
0.0
  0
ARC
  5
4EF
330
1F
100
AcDbEntity
  8
0
  6
Continuous
 62
     1
100
AcDbCircle
 10
275.663690167
 20
368.7
 30
0.0
 40
0.8
100
AcDbArc
 50
90.0
 51
180.0
  0
LINE
  5
4F0
330
1F
100
AcDbEntity
  8
0
  6
Continuous
 62
     1
100
AcDbLine
 10
276.463690167
 20
368.7
 30
0.0
 11
276.463690167
 21
363.294061623
 31
0.0
  0
ARC
  5
4F1
330
1F
100
AcDbEntity
  8
0
  6
Continuous
 62
     1
100
AcDbCircle
 10
275.663690167
 20
363.294061623
 30
0.0
 40
0.8
100
AcDbArc
 50
319.635463427
 51
0.0
  0
LINE
  5
4F2
330
1F
100
AcDbEntity
  8
0
  6
Continuous
 62
     1
100
AcDbLine
 10
273.063690167
 20
358.705938377
 30
0.0
 11
273.063690167
 21
330.0
 31
0.0
  0
LINE
  5
4F3
330
1F
100
AcDbEntity
  8
0
  6
Continuous
 62
     1
100
AcDbLine
 10
276.273241622
 20
362.775942887
 30
0.0
 11
273.254138713
 21
359.224057113
 31
0.0
  0
ARC
  5
4F4
330
1F
100
AcDbEntity
  8
0
  6
Continuous
 62
     1
100
AcDbCircle
 10
273.863690167
 20
358.705938377
 30
0.0
 40
0.8
100
AcDbArc
 50
139.635463427
 51
180.0
  0
LINE
  5
4F5
330
1F
100
AcDbEntity
  8
0
  6
Continuous
 62
     1
100
AcDbLine
 10
271.654138713
 20
360.224057113
 30
0.0
 11
273.784190167
 21
362.73
 31
0.0
  0
ARC
  5
4F6
330
1F
100
AcDbEntity
  8
0
  6
Continuous
 62
     1
100
AcDbCircle
 10
272.263690167
 20
359.705938377
 30
0.0
 40
0.8
100
AcDbArc
 50
139.635463427
 51
180.0
  0
LINE
  5
4F7
330
1F
100
AcDbEntity
  8
0
  6
Continuous
 62
     1
100
AcDbLine
 10
271.463690167
 20
332.5
 30
0.0
 11
271.463690167
 21
359.705938377
 31
0.0
  0
ARC
  5
4F8
330
1F
100
AcDbEntity
  8
0
  6
Continuous
 62
     1
100
AcDbCircle
 10
272.263690167
 20
332.5
 30
0.0
 40
0.8
100
AcDbArc
 50
180.0
 51
270.0
  0
LINE
  5
4F9
330
1F
100
AcDbEntity
  8
0
  6
Continuous
 62
     1
100
AcDbLine
 10
271.463690167
 20
327.5
 30
0.0
 11
271.463690167
 21
300.294061623
 31
0.0
  0
LWPOLYLINE
  5
4FB
330
1F
100
AcDbEntity
  8
0
  6
Continuous
 62
     1
100
AcDbPolyline
 90
     3
 70
   128
 43
0.0
 10
271.463690167
 20
327.5
 42
-0.414213562
 10
272.263690167
 20
328.3
 42
0.0
 10
272.263690167
 20
328.3
 42
0.0
  0
LINE
  5
4FC
330
1F
100
AcDbEntity
  8
0
  6
Continuous
 62
     1
100
AcDbLine
 10
273.063690167
 20
327.5
 30
0.0
 11
273.063690167
 21
327.3
 31
0.0
  0
ARC
  5
4FD
330
1F
100
AcDbEntity
  8
0
  6
Continuous
 62
     1
100
AcDbCircle
 10
272.263690167
 20
327.5
 30
0.0
 40
0.8
100
AcDbArc
 50
360.0
 51
90.0
  0
LINE
  5
4FE
330
1F
100
AcDbEntity
  8
0
  6
Continuous
 62
     1
100
AcDbLine
 10
272.263690167
 20
331.7
 30
0.0
 11
272.263690167
 21
331.7
 31
0.0
  0
LINE
  5
4FF
330
1F
100
AcDbEntity
  8
0
  6
Continuous
 62
     1
100
AcDbLine
 10
273.063690167
 20
332.5
 30
0.0
 11
273.063690167
 21
332.7
 31
0.0
  0
ARC
  5
500
330
1F
100
AcDbEntity
  8
0
  6
Continuous
 62
     1
100
AcDbCircle
 10
272.263690167
 20
332.5
 30
0.0
 40
0.8
100
AcDbArc
 50
270.0
 51
0.0
  0
LINE
  5
501
330
1F
100
AcDbEntity
  8
0
  6
Continuous
 62
     1
100
AcDbLine
 10
274.663690167
 20
330.0
 30
0.0
 11
274.663690167
 21
299.1
 31
0.0
  0
LWPOLYLINE
  5
503
330
1F
100
AcDbEntity
  8
0
  6
Continuous
 62
     1
100
AcDbPolyline
 90
     4
 70
   129
 43
0.0
 10
274.843690167
 20
290.25
 10
274.843690167
 20
298.25
 10
274.343690167
 20
298.25
 10
274.343690167
 20
290.25
  0
LINE
  5
504
330
1F
100
AcDbEntity
  8
0
  6
Continuous
 62
     1
100
AcDbLine
 10
273.643690167
 20
297.25
 30
0.0
 11
274.343690167
 21
297.25
 31
0.0
  0
LWPOLYLINE
  5
506
330
1F
100
AcDbEntity
  8
0
  6
Continuous
 62
     1
100
AcDbPolyline
 90
     3
 70
   128
 43
0.0
 10
274.343690167
 20
291.25
 10
273.643690167
 20
291.25
 10
273.643690167
 20
297.25
  0
LINE
  5
507
330
1F
100
AcDbEntity
  8
0
  6
Continuous
 62
     1
100
AcDbLine
 10
274.343690167
 20
294.65
 30
0.0
 11
273.643690167
 21
293.85
 31
0.0
  0
ARC
  5
508
330
1F
100
AcDbEntity
  8
0
  6
Continuous
 62
     1
100
AcDbCircle
 10
273.643690167
 20
293.25
 30
0.0
 40
2.0
100
AcDbArc
 50
180.0
 51
270.0
  0
ARC
  5
509
330
1F
100
AcDbEntity
  8
0
  6
Continuous
 62
     1
100
AcDbCircle
 10
273.643690167
 20
295.25
 30
0.0
 40
2.0
100
AcDbArc
 50
90.0
 51
180.0
  0
LINE
  5
50A
330
1F
100
AcDbEntity
  8
0
  6
Continuous
 62
     1
100
AcDbLine
 10
271.643690167
 20
295.25
 30
0.0
 11
271.643690167
 21
293.25
 31
0.0
  0
LINE
  5
50B
330
1F
100
AcDbEntity
  8
0
  6
Continuous
 62
     1
100
AcDbLine
 10
271.643690167
 20
294.25
 30
0.0
 11
272.843690167
 21
293.05
 31
0.0
  0
LINE
  5
50C
330
1F
100
AcDbEntity
  8
0
  6
Continuous
 62
     1
100
AcDbLine
 10
271.643690167
 20
294.25
 30
0.0
 11
272.843690167
 21
295.45
 31
0.0
  0
LINE
  5
50D
330
1F
100
AcDbEntity
  8
0
  6
Continuous
 62
     1
100
AcDbLine
 10
273.063690167
 20
298.1
 30
0.0
 11
273.063690167
 21
297.1
 31
0.0
  0
ARC
  5
50E
330
1F
100
AcDbEntity
  8
0
  6
Continuous
 62
     1
100
AcDbCircle
 10
275.663690167
 20
291.3
 30
0.0
 40
0.8
100
AcDbArc
 50
270.0
 51
0.0
  0
LINE
  5
50F
330
1F
100
AcDbEntity
  8
0
  6
Continuous
 62
     1
100
AcDbLine
 10
275.663690167
 20
290.5
 30
0.0
 11
275.663690167
 21
290.5
 31
0.0
  0
LINE
  5
510
330
1F
100
AcDbEntity
  8
0
  6
Continuous
 62
     1
100
AcDbLine
 10
274.863690167
 20
296.0
 30
0.0
 11
274.863690167
 21
291.3
 31
0.0
  0
ARC
  5
511
330
1F
100
AcDbEntity
  8
0
  6
Continuous
 62
     1
100
AcDbCircle
 10
275.663690167
 20
291.3
 30
0.0
 40
0.8
100
AcDbArc
 50
180.0
 51
270.0
  0
LINE
  5
512
330
1F
100
AcDbEntity
  8
0
  6
Continuous
 62
     1
100
AcDbLine
 10
276.463690167
 20
291.3
 30
0.0
 11
276.463690167
 21
296.705938377
 31
0.0
  0
ARC
  5
513
330
1F
100
AcDbEntity
  8
0
  6
Continuous
 62
     1
100
AcDbCircle
 10
275.663690167
 20
296.705938377
 30
0.0
 40
0.8
100
AcDbArc
 50
0.0
 51
40.364536573
  0
LINE
  5
514
330
1F
100
AcDbEntity
  8
0
  6
Continuous
 62
     1
100
AcDbLine
 10
273.063690167
 20
301.294061623
 30
0.0
 11
273.063690167
 21
330.0
 31
0.0
  0
LINE
  5
515
330
1F
100
AcDbEntity
  8
0
  6
Continuous
 62
     1
100
AcDbLine
 10
276.273241622
 20
297.224057113
 30
0.0
 11
273.254138713
 21
300.775942887
 31
0.0
  0
ARC
  5
516
330
1F
100
AcDbEntity
  8
0
  6
Continuous
 62
     1
100
AcDbCircle
 10
273.863690167
 20
301.294061623
 30
0.0
 40
0.8
100
AcDbArc
 50
180.0
 51
220.364536573
  0
LINE
  5
517
330
1F
100
AcDbEntity
  8
0
  6
Continuous
 62
     1
100
AcDbLine
 10
271.654138713
 20
299.775942887
 30
0.0
 11
273.784190167
 21
297.27
 31
0.0
  0
ARC
  5
518
330
1F
100
AcDbEntity
  8
0
  6
Continuous
 62
     1
100
AcDbCircle
 10
272.263690167
 20
300.294061623
 30
0.0
 40
0.8
100
AcDbArc
 50
180.0
 51
220.364536573
  0
LINE
  5
519
330
1F
100
AcDbEntity
  8
0
  6
Continuous
 62
     1
100
AcDbLine
 10
274.663690167
 20
330.0
 30
0.0
 11
274.663690167
 21
360.9
 31
0.0
  0
LWPOLYLINE
  5
51B
330
1F
100
AcDbEntity
  8
0
  6
Continuous
 62
     1
100
AcDbPolyline
 90
     4
 70
   129
 43
0.0
 10
274.843690167
 20
369.75
 10
274.843690167
 20
361.75
 10
274.343690167
 20
361.75
 10
274.343690167
 20
369.75
  0
LINE
  5
51C
330
1F
100
AcDbEntity
  8
0
  6
Continuous
 62
     1
100
AcDbLine
 10
273.643690167
 20
362.75
 30
0.0
 11
274.343690167
 21
362.75
 31
0.0
  0
LWPOLYLINE
  5
51E
330
1F
100
AcDbEntity
  8
0
  6
Continuous
 62
     1
100
AcDbPolyline
 90
     3
 70
   128
 43
0.0
 10
274.343690167
 20
368.75
 10
273.643690167
 20
368.75
 10
273.643690167
 20
362.75
  0
LINE
  5
51F
330
1F
100
AcDbEntity
  8
0
  6
Continuous
 62
     1
100
AcDbLine
 10
274.343690167
 20
365.35
 30
0.0
 11
273.643690167
 21
366.15
 31
0.0
  0
ARC
  5
520
330
1F
100
AcDbEntity
  8
0
  6
Continuous
 62
     1
100
AcDbCircle
 10
273.643690167
 20
366.75
 30
0.0
 40
2.0
100
AcDbArc
 50
90.0
 51
180.0
  0
ARC
  5
521
330
1F
100
AcDbEntity
  8
0
  6
Continuous
 62
     1
100
AcDbCircle
 10
273.643690167
 20
364.75
 30
0.0
 40
2.0
100
AcDbArc
 50
180.0
 51
270.0
  0
LINE
  5
522
330
1F
100
AcDbEntity
  8
0
  6
Continuous
 62
     1
100
AcDbLine
 10
271.643690167
 20
364.75
 30
0.0
 11
271.643690167
 21
366.75
 31
0.0
  0
LINE
  5
523
330
1F
100
AcDbEntity
  8
0
  6
Continuous
 62
     1
100
AcDbLine
 10
271.643690167
 20
365.75
 30
0.0
 11
272.843690167
 21
366.95
 31
0.0
  0
LINE
  5
524
330
1F
100
AcDbEntity
  8
0
  6
Continuous
 62
     1
100
AcDbLine
 10
271.643690167
 20
365.75
 30
0.0
 11
272.843690167
 21
364.55
 31
0.0
  0
LINE
  5
525
330
1F
100
AcDbEntity
  8
0
  6
Continuous
 62
     1
100
AcDbLine
 10
273.063690167
 20
361.9
 30
0.0
 11
273.063690167
 21
362.9
 31
0.0
  0
ARC
  5
526
330
1F
100
AcDbEntity
  8
0
  6
Continuous
 62
     1
100
AcDbCircle
 10
275.663690167
 20
368.7
 30
0.0
 40
0.8
100
AcDbArc
 50
0.0
 51
90.0
  0
LINE
  5
527
330
1F
100
AcDbEntity
  8
0
  6
Continuous
 62
     1
100
AcDbLine
 10
275.663690167
 20
369.5
 30
0.0
 11
275.663690167
 21
369.5
 31
0.0
  0
LINE
  5
528
330
1F
100
AcDbEntity
  8
0
  6
Continuous
 62
     1
100
AcDbLine
 10
274.863690167
 20
364.0
 30
0.0
 11
274.863690167
 21
368.7
 31
0.0
  0
ARC
  5
529
330
1F
100
AcDbEntity
  8
0
  6
Continuous
 62
     1
100
AcDbCircle
 10
275.663690167
 20
368.7
 30
0.0
 40
0.8
100
AcDbArc
 50
90.0
 51
180.0
  0
LINE
  5
52A
330
1F
100
AcDbEntity
  8
0
  6
Continuous
 62
     1
100
AcDbLine
 10
276.463690167
 20
368.7
 30
0.0
 11
276.463690167
 21
363.294061623
 31
0.0
  0
ARC
  5
52B
330
1F
100
AcDbEntity
  8
0
  6
Continuous
 62
     1
100
AcDbCircle
 10
275.663690167
 20
363.294061623
 30
0.0
 40
0.8
100
AcDbArc
 50
319.635463427
 51
0.0
  0
LINE
  5
52C
330
1F
100
AcDbEntity
  8
0
  6
Continuous
 62
     1
100
AcDbLine
 10
273.063690167
 20
358.705938377
 30
0.0
 11
273.063690167
 21
330.0
 31
0.0
  0
LINE
  5
52D
330
1F
100
AcDbEntity
  8
0
  6
Continuous
 62
     1
100
AcDbLine
 10
276.273241622
 20
362.775942887
 30
0.0
 11
273.254138713
 21
359.224057113
 31
0.0
  0
ARC
  5
52E
330
1F
100
AcDbEntity
  8
0
  6
Continuous
 62
     1
100
AcDbCircle
 10
273.863690167
 20
358.705938377
 30
0.0
 40
0.8
100
AcDbArc
 50
139.635463427
 51
180.0
  0
LINE
  5
52F
330
1F
100
AcDbEntity
  8
0
  6
Continuous
 62
     1
100
AcDbLine
 10
271.654138713
 20
360.224057113
 30
0.0
 11
273.784190167
 21
362.73
 31
0.0
  0
ARC
  5
530
330
1F
100
AcDbEntity
  8
0
  6
Continuous
 62
     1
100
AcDbCircle
 10
272.263690167
 20
359.705938377
 30
0.0
 40
0.8
100
AcDbArc
 50
139.635463427
 51
180.0
  0
LINE
  5
531
330
1F
100
AcDbEntity
  8
0
  6
Continuous
 62
     1
100
AcDbLine
 10
271.463690167
 20
332.5
 30
0.0
 11
271.463690167
 21
359.705938377
 31
0.0
  0
ARC
  5
532
330
1F
100
AcDbEntity
  8
0
  6
Continuous
 62
     1
100
AcDbCircle
 10
272.263690167
 20
332.5
 30
0.0
 40
0.8
100
AcDbArc
 50
180.0
 51
270.0
  0
LINE
  5
533
330
1F
100
AcDbEntity
  8
0
  6
Continuous
 62
     1
100
AcDbLine
 10
271.463690167
 20
327.5
 30
0.0
 11
271.463690167
 21
300.294061623
 31
0.0
  0
LWPOLYLINE
  5
535
330
1F
100
AcDbEntity
  8
0
  6
Continuous
 62
     1
100
AcDbPolyline
 90
     3
 70
   128
 43
0.0
 10
271.463690167
 20
327.5
 42
-0.414213562
 10
272.263690167
 20
328.3
 42
0.0
 10
272.263690167
 20
328.3
 42
0.0
  0
LINE
  5
536
330
1F
100
AcDbEntity
  8
0
  6
Continuous
 62
     1
100
AcDbLine
 10
273.063690167
 20
327.5
 30
0.0
 11
273.063690167
 21
327.3
 31
0.0
  0
ARC
  5
537
330
1F
100
AcDbEntity
  8
0
  6
Continuous
 62
     1
100
AcDbCircle
 10
272.263690167
 20
327.5
 30
0.0
 40
0.8
100
AcDbArc
 50
360.0
 51
90.0
  0
LINE
  5
538
330
1F
100
AcDbEntity
  8
0
  6
Continuous
 62
     1
100
AcDbLine
 10
272.263690167
 20
331.7
 30
0.0
 11
272.263690167
 21
331.7
 31
0.0
  0
LINE
  5
539
330
1F
100
AcDbEntity
  8
0
  6
Continuous
 62
     1
100
AcDbLine
 10
273.063690167
 20
332.5
 30
0.0
 11
273.063690167
 21
332.7
 31
0.0
  0
ARC
  5
53A
330
1F
100
AcDbEntity
  8
0
  6
Continuous
 62
     1
100
AcDbCircle
 10
272.263690167
 20
332.5
 30
0.0
 40
0.8
100
AcDbArc
 50
270.0
 51
0.0
  0
LINE
  5
53B
330
1F
100
AcDbEntity
  8
0
  6
Continuous
 62
     1
100
AcDbLine
 10
274.663690167
 20
330.0
 30
0.0
 11
274.663690167
 21
299.1
 31
0.0
  0
LWPOLYLINE
  5
53D
330
1F
100
AcDbEntity
  8
0
  6
Continuous
 62
     1
100
AcDbPolyline
 90
     4
 70
   129
 43
0.0
 10
274.843690167
 20
290.25
 10
274.843690167
 20
298.25
 10
274.343690167
 20
298.25
 10
274.343690167
 20
290.25
  0
LINE
  5
53E
330
1F
100
AcDbEntity
  8
0
  6
Continuous
 62
     1
100
AcDbLine
 10
273.643690167
 20
297.25
 30
0.0
 11
274.343690167
 21
297.25
 31
0.0
  0
LWPOLYLINE
  5
540
330
1F
100
AcDbEntity
  8
0
  6
Continuous
 62
     1
100
AcDbPolyline
 90
     3
 70
   128
 43
0.0
 10
274.343690167
 20
291.25
 10
273.643690167
 20
291.25
 10
273.643690167
 20
297.25
  0
LINE
  5
541
330
1F
100
AcDbEntity
  8
0
  6
Continuous
 62
     1
100
AcDbLine
 10
274.343690167
 20
294.65
 30
0.0
 11
273.643690167
 21
293.85
 31
0.0
  0
ARC
  5
542
330
1F
100
AcDbEntity
  8
0
  6
Continuous
 62
     1
100
AcDbCircle
 10
273.643690167
 20
293.25
 30
0.0
 40
2.0
100
AcDbArc
 50
180.0
 51
270.0
  0
ARC
  5
543
330
1F
100
AcDbEntity
  8
0
  6
Continuous
 62
     1
100
AcDbCircle
 10
273.643690167
 20
295.25
 30
0.0
 40
2.0
100
AcDbArc
 50
90.0
 51
180.0
  0
LINE
  5
544
330
1F
100
AcDbEntity
  8
0
  6
Continuous
 62
     1
100
AcDbLine
 10
271.643690167
 20
295.25
 30
0.0
 11
271.643690167
 21
293.25
 31
0.0
  0
LINE
  5
545
330
1F
100
AcDbEntity
  8
0
  6
Continuous
 62
     1
100
AcDbLine
 10
271.643690167
 20
294.25
 30
0.0
 11
272.843690167
 21
293.05
 31
0.0
  0
LINE
  5
546
330
1F
100
AcDbEntity
  8
0
  6
Continuous
 62
     1
100
AcDbLine
 10
271.643690167
 20
294.25
 30
0.0
 11
272.843690167
 21
295.45
 31
0.0
  0
LINE
  5
547
330
1F
100
AcDbEntity
  8
0
  6
Continuous
 62
     1
100
AcDbLine
 10
273.063690167
 20
298.1
 30
0.0
 11
273.063690167
 21
297.1
 31
0.0
  0
ARC
  5
548
330
1F
100
AcDbEntity
  8
0
  6
Continuous
 62
     1
100
AcDbCircle
 10
275.663690167
 20
291.3
 30
0.0
 40
0.8
100
AcDbArc
 50
270.0
 51
0.0
  0
LINE
  5
549
330
1F
100
AcDbEntity
  8
0
  6
Continuous
 62
     1
100
AcDbLine
 10
275.663690167
 20
290.5
 30
0.0
 11
275.663690167
 21
290.5
 31
0.0
  0
LINE
  5
54A
330
1F
100
AcDbEntity
  8
0
  6
Continuous
 62
     1
100
AcDbLine
 10
274.863690167
 20
296.0
 30
0.0
 11
274.863690167
 21
291.3
 31
0.0
  0
ARC
  5
54B
330
1F
100
AcDbEntity
  8
0
  6
Continuous
 62
     1
100
AcDbCircle
 10
275.663690167
 20
291.3
 30
0.0
 40
0.8
100
AcDbArc
 50
180.0
 51
270.0
  0
LINE
  5
54C
330
1F
100
AcDbEntity
  8
0
  6
Continuous
 62
     1
100
AcDbLine
 10
276.463690167
 20
291.3
 30
0.0
 11
276.463690167
 21
296.705938377
 31
0.0
  0
ARC
  5
54D
330
1F
100
AcDbEntity
  8
0
  6
Continuous
 62
     1
100
AcDbCircle
 10
275.663690167
 20
296.705938377
 30
0.0
 40
0.8
100
AcDbArc
 50
0.0
 51
40.364536573
  0
LINE
  5
54E
330
1F
100
AcDbEntity
  8
0
  6
Continuous
 62
     1
100
AcDbLine
 10
273.063690167
 20
301.294061623
 30
0.0
 11
273.063690167
 21
330.0
 31
0.0
  0
LINE
  5
54F
330
1F
100
AcDbEntity
  8
0
  6
Continuous
 62
     1
100
AcDbLine
 10
276.273241622
 20
297.224057113
 30
0.0
 11
273.254138713
 21
300.775942887
 31
0.0
  0
ARC
  5
550
330
1F
100
AcDbEntity
  8
0
  6
Continuous
 62
     1
100
AcDbCircle
 10
273.863690167
 20
301.294061623
 30
0.0
 40
0.8
100
AcDbArc
 50
180.0
 51
220.364536573
  0
LINE
  5
551
330
1F
100
AcDbEntity
  8
0
  6
Continuous
 62
     1
100
AcDbLine
 10
271.654138713
 20
299.775942887
 30
0.0
 11
273.784190167
 21
297.27
 31
0.0
  0
ARC
  5
552
330
1F
100
AcDbEntity
  8
0
  6
Continuous
 62
     1
100
AcDbCircle
 10
272.263690167
 20
300.294061623
 30
0.0
 40
0.8
100
AcDbArc
 50
180.0
 51
220.364536573
  0
LINE
  5
553
330
1F
100
AcDbEntity
  8
0
  6
Continuous
 62
     1
100
AcDbLine
 10
274.663690167
 20
330.0
 30
0.0
 11
274.663690167
 21
360.9
 31
0.0
  0
LWPOLYLINE
  5
555
330
1F
100
AcDbEntity
  8
0
  6
Continuous
 62
     1
100
AcDbPolyline
 90
     4
 70
   129
 43
0.0
 10
274.843690167
 20
369.75
 10
274.843690167
 20
361.75
 10
274.343690167
 20
361.75
 10
274.343690167
 20
369.75
  0
LINE
  5
556
330
1F
100
AcDbEntity
  8
0
  6
Continuous
 62
     1
100
AcDbLine
 10
273.643690167
 20
362.75
 30
0.0
 11
274.343690167
 21
362.75
 31
0.0
  0
LWPOLYLINE
  5
558
330
1F
100
AcDbEntity
  8
0
  6
Continuous
 62
     1
100
AcDbPolyline
 90
     3
 70
   128
 43
0.0
 10
274.343690167
 20
368.75
 10
273.643690167
 20
368.75
 10
273.643690167
 20
362.75
  0
LINE
  5
559
330
1F
100
AcDbEntity
  8
0
  6
Continuous
 62
     1
100
AcDbLine
 10
274.343690167
 20
365.35
 30
0.0
 11
273.643690167
 21
366.15
 31
0.0
  0
ARC
  5
55A
330
1F
100
AcDbEntity
  8
0
  6
Continuous
 62
     1
100
AcDbCircle
 10
273.643690167
 20
366.75
 30
0.0
 40
2.0
100
AcDbArc
 50
90.0
 51
180.0
  0
ARC
  5
55B
330
1F
100
AcDbEntity
  8
0
  6
Continuous
 62
     1
100
AcDbCircle
 10
273.643690167
 20
364.75
 30
0.0
 40
2.0
100
AcDbArc
 50
180.0
 51
270.0
  0
LINE
  5
55C
330
1F
100
AcDbEntity
  8
0
  6
Continuous
 62
     1
100
AcDbLine
 10
271.643690167
 20
364.75
 30
0.0
 11
271.643690167
 21
366.75
 31
0.0
  0
LINE
  5
55D
330
1F
100
AcDbEntity
  8
0
  6
Continuous
 62
     1
100
AcDbLine
 10
271.643690167
 20
365.75
 30
0.0
 11
272.843690167
 21
366.95
 31
0.0
  0
LINE
  5
55E
330
1F
100
AcDbEntity
  8
0
  6
Continuous
 62
     1
100
AcDbLine
 10
271.643690167
 20
365.75
 30
0.0
 11
272.843690167
 21
364.55
 31
0.0
  0
LINE
  5
55F
330
1F
100
AcDbEntity
  8
0
  6
Continuous
 62
     1
100
AcDbLine
 10
273.063690167
 20
361.9
 30
0.0
 11
273.063690167
 21
362.9
 31
0.0
  0
ARC
  5
560
330
1F
100
AcDbEntity
  8
0
  6
Continuous
 62
     1
100
AcDbCircle
 10
275.663690167
 20
368.7
 30
0.0
 40
0.8
100
AcDbArc
 50
0.0
 51
90.0
  0
LINE
  5
561
330
1F
100
AcDbEntity
  8
0
  6
Continuous
 62
     1
100
AcDbLine
 10
275.663690167
 20
369.5
 30
0.0
 11
275.663690167
 21
369.5
 31
0.0
  0
LINE
  5
562
330
1F
100
AcDbEntity
  8
0
  6
Continuous
 62
     1
100
AcDbLine
 10
274.863690167
 20
364.0
 30
0.0
 11
274.863690167
 21
368.7
 31
0.0
  0
ARC
  5
563
330
1F
100
AcDbEntity
  8
0
  6
Continuous
 62
     1
100
AcDbCircle
 10
275.663690167
 20
368.7
 30
0.0
 40
0.8
100
AcDbArc
 50
90.0
 51
180.0
  0
LINE
  5
564
330
1F
100
AcDbEntity
  8
0
  6
Continuous
 62
     1
100
AcDbLine
 10
276.463690167
 20
368.7
 30
0.0
 11
276.463690167
 21
363.294061623
 31
0.0
  0
ARC
  5
565
330
1F
100
AcDbEntity
  8
0
  6
Continuous
 62
     1
100
AcDbCircle
 10
275.663690167
 20
363.294061623
 30
0.0
 40
0.8
100
AcDbArc
 50
319.635463427
 51
0.0
  0
LINE
  5
566
330
1F
100
AcDbEntity
  8
0
  6
Continuous
 62
     1
100
AcDbLine
 10
273.063690167
 20
358.705938377
 30
0.0
 11
273.063690167
 21
330.0
 31
0.0
  0
LINE
  5
567
330
1F
100
AcDbEntity
  8
0
  6
Continuous
 62
     1
100
AcDbLine
 10
276.273241622
 20
362.775942887
 30
0.0
 11
273.254138713
 21
359.224057113
 31
0.0
  0
ARC
  5
568
330
1F
100
AcDbEntity
  8
0
  6
Continuous
 62
     1
100
AcDbCircle
 10
273.863690167
 20
358.705938377
 30
0.0
 40
0.8
100
AcDbArc
 50
139.635463427
 51
180.0
  0
LINE
  5
569
330
1F
100
AcDbEntity
  8
0
  6
Continuous
 62
     1
100
AcDbLine
 10
271.654138713
 20
360.224057113
 30
0.0
 11
273.784190167
 21
362.73
 31
0.0
  0
ARC
  5
56A
330
1F
100
AcDbEntity
  8
0
  6
Continuous
 62
     1
100
AcDbCircle
 10
272.263690167
 20
359.705938377
 30
0.0
 40
0.8
100
AcDbArc
 50
139.635463427
 51
180.0
  0
LINE
  5
56B
330
1F
100
AcDbEntity
  8
0
  6
Continuous
 62
     1
100
AcDbLine
 10
271.463690167
 20
332.5
 30
0.0
 11
271.463690167
 21
359.705938377
 31
0.0
  0
ARC
  5
56C
330
1F
100
AcDbEntity
  8
0
  6
Continuous
 62
     1
100
AcDbCircle
 10
272.263690167
 20
332.5
 30
0.0
 40
0.8
100
AcDbArc
 50
180.0
 51
270.0
  0
LINE
  5
56D
330
1F
100
AcDbEntity
  8
0
  6
Continuous
 62
     1
100
AcDbLine
 10
271.463690167
 20
327.5
 30
0.0
 11
271.463690167
 21
300.294061623
 31
0.0
  0
LWPOLYLINE
  5
56F
330
1F
100
AcDbEntity
  8
0
  6
Continuous
 62
     1
100
AcDbPolyline
 90
     3
 70
   128
 43
0.0
 10
271.463690167
 20
327.5
 42
-0.414213562
 10
272.263690167
 20
328.3
 42
0.0
 10
272.263690167
 20
328.3
 42
0.0
  0
LINE
  5
570
330
1F
100
AcDbEntity
  8
0
  6
Continuous
 62
     1
100
AcDbLine
 10
273.063690167
 20
327.5
 30
0.0
 11
273.063690167
 21
327.3
 31
0.0
  0
ARC
  5
571
330
1F
100
AcDbEntity
  8
0
  6
Continuous
 62
     1
100
AcDbCircle
 10
272.263690167
 20
327.5
 30
0.0
 40
0.8
100
AcDbArc
 50
360.0
 51
90.0
  0
LINE
  5
572
330
1F
100
AcDbEntity
  8
0
  6
Continuous
 62
     1
100
AcDbLine
 10
272.263690167
 20
331.7
 30
0.0
 11
272.263690167
 21
331.7
 31
0.0
  0
LINE
  5
573
330
1F
100
AcDbEntity
  8
0
  6
Continuous
 62
     1
100
AcDbLine
 10
273.063690167
 20
332.5
 30
0.0
 11
273.063690167
 21
332.7
 31
0.0
  0
ARC
  5
574
330
1F
100
AcDbEntity
  8
0
  6
Continuous
 62
     1
100
AcDbCircle
 10
272.263690167
 20
332.5
 30
0.0
 40
0.8
100
AcDbArc
 50
270.0
 51
0.0
  0
LINE
  5
575
330
1F
100
AcDbEntity
  8
0
  6
Continuous
 62
     1
100
AcDbLine
 10
274.663690167
 20
330.0
 30
0.0
 11
274.663690167
 21
299.1
 31
0.0
  0
LWPOLYLINE
  5
577
330
1F
100
AcDbEntity
  8
0
  6
Continuous
 62
     1
100
AcDbPolyline
 90
     4
 70
   129
 43
0.0
 10
274.843690167
 20
290.25
 10
274.843690167
 20
298.25
 10
274.343690167
 20
298.25
 10
274.343690167
 20
290.25
  0
LINE
  5
578
330
1F
100
AcDbEntity
  8
0
  6
Continuous
 62
     1
100
AcDbLine
 10
273.643690167
 20
297.25
 30
0.0
 11
274.343690167
 21
297.25
 31
0.0
  0
LWPOLYLINE
  5
57A
330
1F
100
AcDbEntity
  8
0
  6
Continuous
 62
     1
100
AcDbPolyline
 90
     3
 70
   128
 43
0.0
 10
274.343690167
 20
291.25
 10
273.643690167
 20
291.25
 10
273.643690167
 20
297.25
  0
LINE
  5
57B
330
1F
100
AcDbEntity
  8
0
  6
Continuous
 62
     1
100
AcDbLine
 10
274.343690167
 20
294.65
 30
0.0
 11
273.643690167
 21
293.85
 31
0.0
  0
ARC
  5
57C
330
1F
100
AcDbEntity
  8
0
  6
Continuous
 62
     1
100
AcDbCircle
 10
273.643690167
 20
293.25
 30
0.0
 40
2.0
100
AcDbArc
 50
180.0
 51
270.0
  0
ARC
  5
57D
330
1F
100
AcDbEntity
  8
0
  6
Continuous
 62
     1
100
AcDbCircle
 10
273.643690167
 20
295.25
 30
0.0
 40
2.0
100
AcDbArc
 50
90.0
 51
180.0
  0
LINE
  5
57E
330
1F
100
AcDbEntity
  8
0
  6
Continuous
 62
     1
100
AcDbLine
 10
271.643690167
 20
295.25
 30
0.0
 11
271.643690167
 21
293.25
 31
0.0
  0
LINE
  5
57F
330
1F
100
AcDbEntity
  8
0
  6
Continuous
 62
     1
100
AcDbLine
 10
271.643690167
 20
294.25
 30
0.0
 11
272.843690167
 21
293.05
 31
0.0
  0
LINE
  5
580
330
1F
100
AcDbEntity
  8
0
  6
Continuous
 62
     1
100
AcDbLine
 10
271.643690167
 20
294.25
 30
0.0
 11
272.843690167
 21
295.45
 31
0.0
  0
LINE
  5
581
330
1F
100
AcDbEntity
  8
0
  6
Continuous
 62
     1
100
AcDbLine
 10
273.063690167
 20
298.1
 30
0.0
 11
273.063690167
 21
297.1
 31
0.0
  0
ARC
  5
582
330
1F
100
AcDbEntity
  8
0
  6
Continuous
 62
     1
100
AcDbCircle
 10
275.663690167
 20
291.3
 30
0.0
 40
0.8
100
AcDbArc
 50
270.0
 51
0.0
  0
LINE
  5
583
330
1F
100
AcDbEntity
  8
0
  6
Continuous
 62
     1
100
AcDbLine
 10
275.663690167
 20
290.5
 30
0.0
 11
275.663690167
 21
290.5
 31
0.0
  0
LINE
  5
584
330
1F
100
AcDbEntity
  8
0
  6
Continuous
 62
     1
100
AcDbLine
 10
274.863690167
 20
296.0
 30
0.0
 11
274.863690167
 21
291.3
 31
0.0
  0
ARC
  5
585
330
1F
100
AcDbEntity
  8
0
  6
Continuous
 62
     1
100
AcDbCircle
 10
275.663690167
 20
291.3
 30
0.0
 40
0.8
100
AcDbArc
 50
180.0
 51
270.0
  0
LINE
  5
586
330
1F
100
AcDbEntity
  8
0
  6
Continuous
 62
     1
100
AcDbLine
 10
276.463690167
 20
291.3
 30
0.0
 11
276.463690167
 21
296.705938377
 31
0.0
  0
ARC
  5
587
330
1F
100
AcDbEntity
  8
0
  6
Continuous
 62
     1
100
AcDbCircle
 10
275.663690167
 20
296.705938377
 30
0.0
 40
0.8
100
AcDbArc
 50
0.0
 51
40.364536573
  0
LINE
  5
588
330
1F
100
AcDbEntity
  8
0
  6
Continuous
 62
     1
100
AcDbLine
 10
273.063690167
 20
301.294061623
 30
0.0
 11
273.063690167
 21
330.0
 31
0.0
  0
LINE
  5
589
330
1F
100
AcDbEntity
  8
0
  6
Continuous
 62
     1
100
AcDbLine
 10
276.273241622
 20
297.224057113
 30
0.0
 11
273.254138713
 21
300.775942887
 31
0.0
  0
ARC
  5
58A
330
1F
100
AcDbEntity
  8
0
  6
Continuous
 62
     1
100
AcDbCircle
 10
273.863690167
 20
301.294061623
 30
0.0
 40
0.8
100
AcDbArc
 50
180.0
 51
220.364536573
  0
LINE
  5
58B
330
1F
100
AcDbEntity
  8
0
  6
Continuous
 62
     1
100
AcDbLine
 10
271.654138713
 20
299.775942887
 30
0.0
 11
273.784190167
 21
297.27
 31
0.0
  0
ARC
  5
58C
330
1F
100
AcDbEntity
  8
0
  6
Continuous
 62
     1
100
AcDbCircle
 10
272.263690167
 20
300.294061623
 30
0.0
 40
0.8
100
AcDbArc
 50
180.0
 51
220.364536573
  0
LINE
  5
58D
330
1F
100
AcDbEntity
  8
0
  6
Continuous
 62
     1
100
AcDbLine
 10
274.663690167
 20
330.0
 30
0.0
 11
274.663690167
 21
360.9
 31
0.0
  0
LWPOLYLINE
  5
58F
330
1F
100
AcDbEntity
  8
0
  6
Continuous
 62
     1
100
AcDbPolyline
 90
     4
 70
   129
 43
0.0
 10
274.843690167
 20
369.75
 10
274.843690167
 20
361.75
 10
274.343690167
 20
361.75
 10
274.343690167
 20
369.75
  0
LINE
  5
590
330
1F
100
AcDbEntity
  8
0
  6
Continuous
 62
     1
100
AcDbLine
 10
273.643690167
 20
362.75
 30
0.0
 11
274.343690167
 21
362.75
 31
0.0
  0
LWPOLYLINE
  5
592
330
1F
100
AcDbEntity
  8
0
  6
Continuous
 62
     1
100
AcDbPolyline
 90
     3
 70
   128
 43
0.0
 10
274.343690167
 20
368.75
 10
273.643690167
 20
368.75
 10
273.643690167
 20
362.75
  0
LINE
  5
593
330
1F
100
AcDbEntity
  8
0
  6
Continuous
 62
     1
100
AcDbLine
 10
274.343690167
 20
365.35
 30
0.0
 11
273.643690167
 21
366.15
 31
0.0
  0
ARC
  5
594
330
1F
100
AcDbEntity
  8
0
  6
Continuous
 62
     1
100
AcDbCircle
 10
273.643690167
 20
366.75
 30
0.0
 40
2.0
100
AcDbArc
 50
90.0
 51
180.0
  0
ARC
  5
595
330
1F
100
AcDbEntity
  8
0
  6
Continuous
 62
     1
100
AcDbCircle
 10
273.643690167
 20
364.75
 30
0.0
 40
2.0
100
AcDbArc
 50
180.0
 51
270.0
  0
LINE
  5
596
330
1F
100
AcDbEntity
  8
0
  6
Continuous
 62
     1
100
AcDbLine
 10
271.643690167
 20
364.75
 30
0.0
 11
271.643690167
 21
366.75
 31
0.0
  0
LINE
  5
597
330
1F
100
AcDbEntity
  8
0
  6
Continuous
 62
     1
100
AcDbLine
 10
271.643690167
 20
365.75
 30
0.0
 11
272.843690167
 21
366.95
 31
0.0
  0
LINE
  5
598
330
1F
100
AcDbEntity
  8
0
  6
Continuous
 62
     1
100
AcDbLine
 10
271.643690167
 20
365.75
 30
0.0
 11
272.843690167
 21
364.55
 31
0.0
  0
LINE
  5
599
330
1F
100
AcDbEntity
  8
0
  6
Continuous
 62
     1
100
AcDbLine
 10
273.063690167
 20
361.9
 30
0.0
 11
273.063690167
 21
362.9
 31
0.0
  0
ARC
  5
59A
330
1F
100
AcDbEntity
  8
0
  6
Continuous
 62
     1
100
AcDbCircle
 10
275.663690167
 20
368.7
 30
0.0
 40
0.8
100
AcDbArc
 50
0.0
 51
90.0
  0
LINE
  5
59B
330
1F
100
AcDbEntity
  8
0
  6
Continuous
 62
     1
100
AcDbLine
 10
275.663690167
 20
369.5
 30
0.0
 11
275.663690167
 21
369.5
 31
0.0
  0
LINE
  5
59C
330
1F
100
AcDbEntity
  8
0
  6
Continuous
 62
     1
100
AcDbLine
 10
274.863690167
 20
364.0
 30
0.0
 11
274.863690167
 21
368.7
 31
0.0
  0
ARC
  5
59D
330
1F
100
AcDbEntity
  8
0
  6
Continuous
 62
     1
100
AcDbCircle
 10
275.663690167
 20
368.7
 30
0.0
 40
0.8
100
AcDbArc
 50
90.0
 51
180.0
  0
LINE
  5
59E
330
1F
100
AcDbEntity
  8
0
  6
Continuous
 62
     1
100
AcDbLine
 10
276.463690167
 20
368.7
 30
0.0
 11
276.463690167
 21
363.294061623
 31
0.0
  0
ARC
  5
59F
330
1F
100
AcDbEntity
  8
0
  6
Continuous
 62
     1
100
AcDbCircle
 10
275.663690167
 20
363.294061623
 30
0.0
 40
0.8
100
AcDbArc
 50
319.635463427
 51
0.0
  0
LINE
  5
5A0
330
1F
100
AcDbEntity
  8
0
  6
Continuous
 62
     1
100
AcDbLine
 10
273.063690167
 20
358.705938377
 30
0.0
 11
273.063690167
 21
330.0
 31
0.0
  0
LINE
  5
5A1
330
1F
100
AcDbEntity
  8
0
  6
Continuous
 62
     1
100
AcDbLine
 10
276.273241622
 20
362.775942887
 30
0.0
 11
273.254138713
 21
359.224057113
 31
0.0
  0
ARC
  5
5A2
330
1F
100
AcDbEntity
  8
0
  6
Continuous
 62
     1
100
AcDbCircle
 10
273.863690167
 20
358.705938377
 30
0.0
 40
0.8
100
AcDbArc
 50
139.635463427
 51
180.0
  0
LINE
  5
5A3
330
1F
100
AcDbEntity
  8
0
  6
Continuous
 62
     1
100
AcDbLine
 10
271.654138713
 20
360.224057113
 30
0.0
 11
273.784190167
 21
362.73
 31
0.0
  0
ARC
  5
5A4
330
1F
100
AcDbEntity
  8
0
  6
Continuous
 62
     1
100
AcDbCircle
 10
272.263690167
 20
359.705938377
 30
0.0
 40
0.8
100
AcDbArc
 50
139.635463427
 51
180.0
  0
LINE
  5
5A5
330
1F
100
AcDbEntity
  8
0
  6
Continuous
 62
     1
100
AcDbLine
 10
271.463690167
 20
332.5
 30
0.0
 11
271.463690167
 21
359.705938377
 31
0.0
  0
ARC
  5
5A6
330
1F
100
AcDbEntity
  8
0
  6
Continuous
 62
     1
100
AcDbCircle
 10
272.263690167
 20
332.5
 30
0.0
 40
0.8
100
AcDbArc
 50
180.0
 51
270.0
  0
LINE
  5
5A7
330
1F
100
AcDbEntity
  8
0
  6
Continuous
 62
     1
100
AcDbLine
 10
271.463690167
 20
327.5
 30
0.0
 11
271.463690167
 21
300.294061623
 31
0.0
  0
LWPOLYLINE
  5
5A9
330
1F
100
AcDbEntity
  8
0
  6
Continuous
 62
     1
100
AcDbPolyline
 90
     3
 70
   128
 43
0.0
 10
271.463690167
 20
327.5
 42
-0.414213562
 10
272.263690167
 20
328.3
 42
0.0
 10
272.263690167
 20
328.3
 42
0.0
  0
LINE
  5
5AA
330
1F
100
AcDbEntity
  8
0
  6
Continuous
 62
     1
100
AcDbLine
 10
273.063690167
 20
327.5
 30
0.0
 11
273.063690167
 21
327.3
 31
0.0
  0
ARC
  5
5AB
330
1F
100
AcDbEntity
  8
0
  6
Continuous
 62
     1
100
AcDbCircle
 10
272.263690167
 20
327.5
 30
0.0
 40
0.8
100
AcDbArc
 50
360.0
 51
90.0
  0
LINE
  5
5AC
330
1F
100
AcDbEntity
  8
0
  6
Continuous
 62
     1
100
AcDbLine
 10
272.263690167
 20
331.7
 30
0.0
 11
272.263690167
 21
331.7
 31
0.0
  0
LINE
  5
5AD
330
1F
100
AcDbEntity
  8
0
  6
Continuous
 62
     1
100
AcDbLine
 10
273.063690167
 20
332.5
 30
0.0
 11
273.063690167
 21
332.7
 31
0.0
  0
ARC
  5
5AE
330
1F
100
AcDbEntity
  8
0
  6
Continuous
 62
     1
100
AcDbCircle
 10
272.263690167
 20
332.5
 30
0.0
 40
0.8
100
AcDbArc
 50
270.0
 51
0.0
  0
LINE
  5
5AF
330
1F
100
AcDbEntity
  8
0
  6
Continuous
 62
     2
100
AcDbLine
 10
617.563690167
 20
272.0
 30
0.0
 11
707.563690167
 21
272.0
 31
0.0
  0
LWPOLYLINE
  5
5B1
330
1F
100
AcDbEntity
  8
0
  6
Continuous
 62
     2
100
AcDbPolyline
 90
     4
 70
   128
 43
0.0
 10
707.563690167
 20
272.0
 10
707.563690167
 20
469.0
 10
617.563690167
 20
469.0
 10
617.563690167
 20
272.0
  0
LINE
  5
5B2
330
1F
100
AcDbEntity
  8
0
  6
Continuous
 62
     2
100
AcDbLine
 10
707.563690167
 20
272.0
 30
0.0
 11
707.563690167
 21
270.0
 31
0.0
  0
LINE
  5
5B3
330
1F
100
AcDbEntity
  8
0
  6
Continuous
 62
     2
100
AcDbLine
 10
707.563690167
 20
270.0
 30
0.0
 11
615.563690167
 21
270.0
 31
0.0
  0
LINE
  5
5B4
330
1F
100
AcDbEntity
  8
0
  6
Continuous
 62
     2
100
AcDbLine
 10
615.563690167
 20
270.0
 30
0.0
 11
615.563690167
 21
469.0
 31
0.0
  0
LINE
  5
5B5
330
1F
100
AcDbEntity
  8
0
  6
Continuous
 62
     2
100
AcDbLine
 10
615.563690167
 20
469.0
 30
0.0
 11
617.563690167
 21
469.0
 31
0.0
  0
LINE
  5
5B6
330
1F
100
AcDbEntity
  8
0
  6
Continuous
 62
     2
100
AcDbLine
 10
617.563690167
 20
469.0
 30
0.0
 11
617.563690167
 21
470.0
 31
0.0
  0
LINE
  5
5B7
330
1F
100
AcDbEntity
  8
0
  6
Continuous
 62
     2
100
AcDbLine
 10
617.563690167
 20
470.0
 30
0.0
 11
708.563690167
 21
470.0
 31
0.0
  0
LINE
  5
5B8
330
1F
100
AcDbEntity
  8
0
  6
Continuous
 62
     2
100
AcDbLine
 10
708.563690167
 20
470.0
 30
0.0
 11
708.563690167
 21
272.0
 31
0.0
  0
LINE
  5
5B9
330
1F
100
AcDbEntity
  8
0
  6
Continuous
 62
     2
100
AcDbLine
 10
708.563690167
 20
272.0
 30
0.0
 11
707.563690167
 21
272.0
 31
0.0
  0
LINE
  5
5BA
330
1F
100
AcDbEntity
  8
0
  6
Continuous
 62
     1
100
AcDbLine
 10
634.063690167
 20
292.0
 30
0.0
 11
637.063690167
 21
292.0
 31
0.0
  0
LWPOLYLINE
  5
5BC
330
1F
100
AcDbEntity
  8
0
  6
Continuous
 62
     1
100
AcDbPolyline
 90
     4
 70
   128
 43
0.0
 10
637.063690167
 20
292.0
 10
637.063690167
 20
307.0
 10
634.063690167
 20
307.0
 10
634.063690167
 20
292.0
  0
LWPOLYLINE
  5
5BE
330
1F
100
AcDbEntity
  8
0
  6
Continuous
 62
     1
100
AcDbPolyline
 90
     4
 70
   129
 43
0.0
 10
634.063690167
 20
322.0
 10
637.063690167
 20
322.0
 10
637.063690167
 20
337.0
 10
634.063690167
 20
337.0
  0
CIRCLE
  5
5BF
330
1F
100
AcDbEntity
  8
0
  6
Continuous
 62
     1
100
AcDbCircle
 10
693.063690167
 20
379.5
 30
0.0
 40
4.0
  0
LINE
  5
5C0
330
1F
100
AcDbEntity
  8
0
  6
Continuous
 62
     1
100
AcDbLine
 10
690.942369824
 20
377.378679656
 30
0.0
 11
695.185010511
 21
381.621320344
 31
0.0
  0
LINE
  5
5C1
330
1F
100
AcDbEntity
  8
0
  6
Continuous
 62
     1
100
AcDbLine
 10
690.942369824
 20
381.621320344
 30
0.0
 11
695.185010511
 21
377.378679656
 31
0.0
  0
LWPOLYLINE
  5
5C3
330
1F
100
AcDbEntity
  8
0
  6
Continuous
 62
     1
100
AcDbPolyline
 90
     4
 70
   129
 43
0.0
 10
686.563690167
 20
373.7
 10
699.563690167
 20
373.7
 10
699.563690167
 20
375.3
 10
686.563690167
 20
375.3
  0
LINE
  5
5C4
330
1F
100
AcDbEntity
  8
0
  6
Continuous
 62
     1
100
AcDbLine
 10
686.563690167
 20
383.7
 30
0.0
 11
699.563690167
 21
383.7
 31
0.0
  0
LWPOLYLINE
  5
5C6
330
1F
100
AcDbEntity
  8
0
  6
Continuous
 62
     1
100
AcDbPolyline
 90
     3
 70
   128
 43
0.0
 10
699.563690167
 20
385.3
 10
686.563690167
 20
385.3
 10
686.563690167
 20
383.7
  0
LINE
  5
5C7
330
1F
100
AcDbEntity
  8
0
  6
Continuous
 62
     1
100
AcDbLine
 10
699.563690167
 20
383.7
 30
0.0
 11
699.563690167
 21
385.3
 31
0.0
  0
LINE
  5
5C8
330
1F
100
AcDbEntity
  8
0
  6
Continuous
 62
     1
100
AcDbLine
 10
686.563690167
 20
383.7
 30
0.0
 11
686.563690167
 21
375.3
 31
0.0
  0
LINE
  5
5C9
330
1F
100
AcDbEntity
  8
0
  6
Continuous
 62
     1
100
AcDbLine
 10
687.563690167
 20
383.7
 30
0.0
 11
687.563690167
 21
375.3
 31
0.0
  0
LINE
  5
5CA
330
1F
100
AcDbEntity
  8
0
  6
Continuous
 62
     1
100
AcDbLine
 10
698.563690167
 20
383.7
 30
0.0
 11
698.563690167
 21
375.3
 31
0.0
  0
LINE
  5
5CB
330
1F
100
AcDbEntity
  8
0
  6
Continuous
 62
     1
100
AcDbLine
 10
699.563690167
 20
383.7
 30
0.0
 11
699.563690167
 21
375.3
 31
0.0
  0
LINE
  5
5CC
330
1F
100
AcDbEntity
  8
0
  6
Continuous
 62
     1
100
AcDbLine
 10
699.563690167
 20
373.7
 30
0.0
 11
699.563690167
 21
373.0
 31
0.0
  0
LINE
  5
5CD
330
1F
100
AcDbEntity
  8
0
  6
Continuous
 62
     1
100
AcDbLine
 10
686.563690167
 20
373.0
 30
0.0
 11
699.563690167
 21
373.0
 31
0.0
  0
LINE
  5
5CE
330
1F
100
AcDbEntity
  8
0
  6
Continuous
 62
     1
100
AcDbLine
 10
698.563690167
 20
373.7
 30
0.0
 11
698.563690167
 21
373.0
 31
0.0
  0
LINE
  5
5CF
330
1F
100
AcDbEntity
  8
0
  6
Continuous
 62
     1
100
AcDbLine
 10
686.563690167
 20
373.7
 30
0.0
 11
686.563690167
 21
373.0
 31
0.0
  0
LINE
  5
5D0
330
1F
100
AcDbEntity
  8
0
  6
Continuous
 62
     1
100
AcDbLine
 10
687.563690167
 20
373.7
 30
0.0
 11
687.563690167
 21
373.0
 31
0.0
  0
CIRCLE
  5
5D1
330
1F
100
AcDbEntity
  8
0
  6
Continuous
 62
     1
100
AcDbCircle
 10
693.063690167
 20
389.5
 30
0.0
 40
4.0
  0
LINE
  5
5D2
330
1F
100
AcDbEntity
  8
0
  6
Continuous
 62
     1
100
AcDbLine
 10
690.942369824
 20
387.378679656
 30
0.0
 11
695.185010511
 21
391.621320344
 31
0.0
  0
LINE
  5
5D3
330
1F
100
AcDbEntity
  8
0
  6
Continuous
 62
     1
100
AcDbLine
 10
690.942369824
 20
391.621320344
 30
0.0
 11
695.185010511
 21
387.378679656
 31
0.0
  0
LINE
  5
5D4
330
1F
100
AcDbEntity
  8
0
  6
Continuous
 62
     1
100
AcDbLine
 10
686.563690167
 20
393.7
 30
0.0
 11
699.563690167
 21
393.7
 31
0.0
  0
LWPOLYLINE
  5
5D6
330
1F
100
AcDbEntity
  8
0
  6
Continuous
 62
     1
100
AcDbPolyline
 90
     3
 70
   128
 43
0.0
 10
699.563690167
 20
395.3
 10
686.563690167
 20
395.3
 10
686.563690167
 20
393.7
  0
LINE
  5
5D7
330
1F
100
AcDbEntity
  8
0
  6
Continuous
 62
     1
100
AcDbLine
 10
699.563690167
 20
393.7
 30
0.0
 11
699.563690167
 21
395.3
 31
0.0
  0
LINE
  5
5D8
330
1F
100
AcDbEntity
  8
0
  6
Continuous
 62
     1
100
AcDbLine
 10
686.563690167
 20
393.7
 30
0.0
 11
686.563690167
 21
385.3
 31
0.0
  0
LINE
  5
5D9
330
1F
100
AcDbEntity
  8
0
  6
Continuous
 62
     1
100
AcDbLine
 10
687.563690167
 20
393.7
 30
0.0
 11
687.563690167
 21
385.3
 31
0.0
  0
LINE
  5
5DA
330
1F
100
AcDbEntity
  8
0
  6
Continuous
 62
     1
100
AcDbLine
 10
698.563690167
 20
393.7
 30
0.0
 11
698.563690167
 21
385.3
 31
0.0
  0
LINE
  5
5DB
330
1F
100
AcDbEntity
  8
0
  6
Continuous
 62
     1
100
AcDbLine
 10
699.563690167
 20
393.7
 30
0.0
 11
699.563690167
 21
385.3
 31
0.0
  0
CIRCLE
  5
5DC
330
1F
100
AcDbEntity
  8
0
  6
Continuous
 62
     1
100
AcDbCircle
 10
693.063690167
 20
399.5
 30
0.0
 40
4.0
  0
LINE
  5
5DD
330
1F
100
AcDbEntity
  8
0
  6
Continuous
 62
     1
100
AcDbLine
 10
690.942369824
 20
397.378679656
 30
0.0
 11
695.185010511
 21
401.621320344
 31
0.0
  0
LINE
  5
5DE
330
1F
100
AcDbEntity
  8
0
  6
Continuous
 62
     1
100
AcDbLine
 10
690.942369824
 20
401.621320344
 30
0.0
 11
695.185010511
 21
397.378679656
 31
0.0
  0
LINE
  5
5DF
330
1F
100
AcDbEntity
  8
0
  6
Continuous
 62
     1
100
AcDbLine
 10
686.563690167
 20
403.7
 30
0.0
 11
699.563690167
 21
403.7
 31
0.0
  0
LWPOLYLINE
  5
5E1
330
1F
100
AcDbEntity
  8
0
  6
Continuous
 62
     1
100
AcDbPolyline
 90
     3
 70
   128
 43
0.0
 10
699.563690167
 20
405.3
 10
686.563690167
 20
405.3
 10
686.563690167
 20
403.7
  0
LINE
  5
5E2
330
1F
100
AcDbEntity
  8
0
  6
Continuous
 62
     1
100
AcDbLine
 10
699.563690167
 20
403.7
 30
0.0
 11
699.563690167
 21
405.3
 31
0.0
  0
LINE
  5
5E3
330
1F
100
AcDbEntity
  8
0
  6
Continuous
 62
     1
100
AcDbLine
 10
686.563690167
 20
403.7
 30
0.0
 11
686.563690167
 21
395.3
 31
0.0
  0
LINE
  5
5E4
330
1F
100
AcDbEntity
  8
0
  6
Continuous
 62
     1
100
AcDbLine
 10
687.563690167
 20
403.7
 30
0.0
 11
687.563690167
 21
395.3
 31
0.0
  0
LINE
  5
5E5
330
1F
100
AcDbEntity
  8
0
  6
Continuous
 62
     1
100
AcDbLine
 10
698.563690167
 20
403.7
 30
0.0
 11
698.563690167
 21
395.3
 31
0.0
  0
LINE
  5
5E6
330
1F
100
AcDbEntity
  8
0
  6
Continuous
 62
     1
100
AcDbLine
 10
699.563690167
 20
403.7
 30
0.0
 11
699.563690167
 21
395.3
 31
0.0
  0
CIRCLE
  5
5E7
330
1F
100
AcDbEntity
  8
0
  6
Continuous
 62
     1
100
AcDbCircle
 10
693.063690167
 20
409.5
 30
0.0
 40
4.0
  0
LINE
  5
5E8
330
1F
100
AcDbEntity
  8
0
  6
Continuous
 62
     1
100
AcDbLine
 10
690.942369824
 20
407.378679656
 30
0.0
 11
695.185010511
 21
411.621320344
 31
0.0
  0
LINE
  5
5E9
330
1F
100
AcDbEntity
  8
0
  6
Continuous
 62
     1
100
AcDbLine
 10
690.942369824
 20
411.621320344
 30
0.0
 11
695.185010511
 21
407.378679656
 31
0.0
  0
LINE
  5
5EA
330
1F
100
AcDbEntity
  8
0
  6
Continuous
 62
     1
100
AcDbLine
 10
686.563690167
 20
413.7
 30
0.0
 11
699.563690167
 21
413.7
 31
0.0
  0
LWPOLYLINE
  5
5EC
330
1F
100
AcDbEntity
  8
0
  6
Continuous
 62
     1
100
AcDbPolyline
 90
     3
 70
   128
 43
0.0
 10
699.563690167
 20
415.3
 10
686.563690167
 20
415.3
 10
686.563690167
 20
413.7
  0
LINE
  5
5ED
330
1F
100
AcDbEntity
  8
0
  6
Continuous
 62
     1
100
AcDbLine
 10
699.563690167
 20
413.7
 30
0.0
 11
699.563690167
 21
415.3
 31
0.0
  0
LINE
  5
5EE
330
1F
100
AcDbEntity
  8
0
  6
Continuous
 62
     1
100
AcDbLine
 10
686.563690167
 20
413.7
 30
0.0
 11
686.563690167
 21
405.3
 31
0.0
  0
LINE
  5
5EF
330
1F
100
AcDbEntity
  8
0
  6
Continuous
 62
     1
100
AcDbLine
 10
687.563690167
 20
413.7
 30
0.0
 11
687.563690167
 21
405.3
 31
0.0
  0
LINE
  5
5F0
330
1F
100
AcDbEntity
  8
0
  6
Continuous
 62
     1
100
AcDbLine
 10
698.563690167
 20
413.7
 30
0.0
 11
698.563690167
 21
405.3
 31
0.0
  0
LINE
  5
5F1
330
1F
100
AcDbEntity
  8
0
  6
Continuous
 62
     1
100
AcDbLine
 10
699.563690167
 20
413.7
 30
0.0
 11
699.563690167
 21
405.3
 31
0.0
  0
CIRCLE
  5
5F2
330
1F
100
AcDbEntity
  8
0
  6
Continuous
 62
     1
100
AcDbCircle
 10
693.063690167
 20
419.5
 30
0.0
 40
4.0
  0
LINE
  5
5F3
330
1F
100
AcDbEntity
  8
0
  6
Continuous
 62
     1
100
AcDbLine
 10
690.942369824
 20
417.378679656
 30
0.0
 11
695.185010511
 21
421.621320344
 31
0.0
  0
LINE
  5
5F4
330
1F
100
AcDbEntity
  8
0
  6
Continuous
 62
     1
100
AcDbLine
 10
690.942369824
 20
421.621320344
 30
0.0
 11
695.185010511
 21
417.378679656
 31
0.0
  0
LINE
  5
5F5
330
1F
100
AcDbEntity
  8
0
  6
Continuous
 62
     1
100
AcDbLine
 10
686.563690167
 20
423.7
 30
0.0
 11
699.563690167
 21
423.7
 31
0.0
  0
LWPOLYLINE
  5
5F7
330
1F
100
AcDbEntity
  8
0
  6
Continuous
 62
     1
100
AcDbPolyline
 90
     3
 70
   128
 43
0.0
 10
699.563690167
 20
425.3
 10
686.563690167
 20
425.3
 10
686.563690167
 20
423.7
  0
LINE
  5
5F8
330
1F
100
AcDbEntity
  8
0
  6
Continuous
 62
     1
100
AcDbLine
 10
699.563690167
 20
423.7
 30
0.0
 11
699.563690167
 21
425.3
 31
0.0
  0
LINE
  5
5F9
330
1F
100
AcDbEntity
  8
0
  6
Continuous
 62
     1
100
AcDbLine
 10
686.563690167
 20
423.7
 30
0.0
 11
686.563690167
 21
415.3
 31
0.0
  0
LINE
  5
5FA
330
1F
100
AcDbEntity
  8
0
  6
Continuous
 62
     1
100
AcDbLine
 10
687.563690167
 20
423.7
 30
0.0
 11
687.563690167
 21
415.3
 31
0.0
  0
LINE
  5
5FB
330
1F
100
AcDbEntity
  8
0
  6
Continuous
 62
     1
100
AcDbLine
 10
698.563690167
 20
423.7
 30
0.0
 11
698.563690167
 21
415.3
 31
0.0
  0
LINE
  5
5FC
330
1F
100
AcDbEntity
  8
0
  6
Continuous
 62
     1
100
AcDbLine
 10
699.563690167
 20
423.7
 30
0.0
 11
699.563690167
 21
415.3
 31
0.0
  0
CIRCLE
  5
5FD
330
1F
100
AcDbEntity
  8
0
  6
Continuous
 62
     1
100
AcDbCircle
 10
693.063690167
 20
429.5
 30
0.0
 40
4.0
  0
LINE
  5
5FE
330
1F
100
AcDbEntity
  8
0
  6
Continuous
 62
     1
100
AcDbLine
 10
690.942369824
 20
427.378679656
 30
0.0
 11
695.185010511
 21
431.621320344
 31
0.0
  0
LINE
  5
5FF
330
1F
100
AcDbEntity
  8
0
  6
Continuous
 62
     1
100
AcDbLine
 10
690.942369824
 20
431.621320344
 30
0.0
 11
695.185010511
 21
427.378679656
 31
0.0
  0
LINE
  5
600
330
1F
100
AcDbEntity
  8
0
  6
Continuous
 62
     1
100
AcDbLine
 10
686.563690167
 20
433.7
 30
0.0
 11
699.563690167
 21
433.7
 31
0.0
  0
LWPOLYLINE
  5
602
330
1F
100
AcDbEntity
  8
0
  6
Continuous
 62
     1
100
AcDbPolyline
 90
     3
 70
   128
 43
0.0
 10
699.563690167
 20
435.3
 10
686.563690167
 20
435.3
 10
686.563690167
 20
433.7
  0
LINE
  5
603
330
1F
100
AcDbEntity
  8
0
  6
Continuous
 62
     1
100
AcDbLine
 10
699.563690167
 20
433.7
 30
0.0
 11
699.563690167
 21
435.3
 31
0.0
  0
LINE
  5
604
330
1F
100
AcDbEntity
  8
0
  6
Continuous
 62
     1
100
AcDbLine
 10
686.563690167
 20
433.7
 30
0.0
 11
686.563690167
 21
425.3
 31
0.0
  0
LINE
  5
605
330
1F
100
AcDbEntity
  8
0
  6
Continuous
 62
     1
100
AcDbLine
 10
687.563690167
 20
433.7
 30
0.0
 11
687.563690167
 21
425.3
 31
0.0
  0
LINE
  5
606
330
1F
100
AcDbEntity
  8
0
  6
Continuous
 62
     1
100
AcDbLine
 10
698.563690167
 20
433.7
 30
0.0
 11
698.563690167
 21
425.3
 31
0.0
  0
LINE
  5
607
330
1F
100
AcDbEntity
  8
0
  6
Continuous
 62
     1
100
AcDbLine
 10
699.563690167
 20
433.7
 30
0.0
 11
699.563690167
 21
425.3
 31
0.0
  0
CIRCLE
  5
608
330
1F
100
AcDbEntity
  8
0
  6
Continuous
 62
     1
100
AcDbCircle
 10
693.063690167
 20
439.5
 30
0.0
 40
4.0
  0
LINE
  5
609
330
1F
100
AcDbEntity
  8
0
  6
Continuous
 62
     1
100
AcDbLine
 10
690.942369824
 20
437.378679656
 30
0.0
 11
695.185010511
 21
441.621320344
 31
0.0
  0
LINE
  5
60A
330
1F
100
AcDbEntity
  8
0
  6
Continuous
 62
     1
100
AcDbLine
 10
690.942369824
 20
441.621320344
 30
0.0
 11
695.185010511
 21
437.378679656
 31
0.0
  0
LINE
  5
60B
330
1F
100
AcDbEntity
  8
0
  6
Continuous
 62
     1
100
AcDbLine
 10
686.563690167
 20
443.7
 30
0.0
 11
699.563690167
 21
443.7
 31
0.0
  0
LWPOLYLINE
  5
60D
330
1F
100
AcDbEntity
  8
0
  6
Continuous
 62
     1
100
AcDbPolyline
 90
     3
 70
   128
 43
0.0
 10
699.563690167
 20
445.3
 10
686.563690167
 20
445.3
 10
686.563690167
 20
443.7
  0
LINE
  5
60E
330
1F
100
AcDbEntity
  8
0
  6
Continuous
 62
     1
100
AcDbLine
 10
699.563690167
 20
443.7
 30
0.0
 11
699.563690167
 21
445.3
 31
0.0
  0
LINE
  5
60F
330
1F
100
AcDbEntity
  8
0
  6
Continuous
 62
     1
100
AcDbLine
 10
686.563690167
 20
443.7
 30
0.0
 11
686.563690167
 21
435.3
 31
0.0
  0
LINE
  5
610
330
1F
100
AcDbEntity
  8
0
  6
Continuous
 62
     1
100
AcDbLine
 10
687.563690167
 20
443.7
 30
0.0
 11
687.563690167
 21
435.3
 31
0.0
  0
LINE
  5
611
330
1F
100
AcDbEntity
  8
0
  6
Continuous
 62
     1
100
AcDbLine
 10
698.563690167
 20
443.7
 30
0.0
 11
698.563690167
 21
435.3
 31
0.0
  0
LINE
  5
612
330
1F
100
AcDbEntity
  8
0
  6
Continuous
 62
     1
100
AcDbLine
 10
699.563690167
 20
443.7
 30
0.0
 11
699.563690167
 21
435.3
 31
0.0
  0
LINE
  5
613
330
1F
100
AcDbEntity
  8
0
  6
Continuous
 62
     1
100
AcDbLine
 10
686.563690167
 20
445.3
 30
0.0
 11
686.563690167
 21
446.0
 31
0.0
  0
LINE
  5
614
330
1F
100
AcDbEntity
  8
0
  6
Continuous
 62
     1
100
AcDbLine
 10
699.563690167
 20
446.0
 30
0.0
 11
686.563690167
 21
446.0
 31
0.0
  0
LINE
  5
615
330
1F
100
AcDbEntity
  8
0
  6
Continuous
 62
     1
100
AcDbLine
 10
687.563690167
 20
445.3
 30
0.0
 11
687.563690167
 21
446.0
 31
0.0
  0
LINE
  5
616
330
1F
100
AcDbEntity
  8
0
  6
Continuous
 62
     1
100
AcDbLine
 10
699.563690167
 20
445.3
 30
0.0
 11
699.563690167
 21
446.0
 31
0.0
  0
LINE
  5
617
330
1F
100
AcDbEntity
  8
0
  6
Continuous
 62
     1
100
AcDbLine
 10
698.563690167
 20
445.3
 30
0.0
 11
698.563690167
 21
446.0
 31
0.0
  0
LWPOLYLINE
  5
619
330
1F
100
AcDbEntity
  8
0
  6
Continuous
 62
     1
100
AcDbPolyline
 90
     4
 70
   129
 43
0.0
 10
623.563690167
 20
436.0
 10
626.063690167
 20
436.0
 10
626.063690167
 20
461.0
 10
623.563690167
 20
461.0
  0
LINE
  5
61A
330
1F
100
AcDbEntity
  8
0
  6
Continuous
 62
     1
100
AcDbLine
 10
623.563690167
 20
406.0
 30
0.0
 11
626.063690167
 21
406.0
 31
0.0
  0
LWPOLYLINE
  5
61C
330
1F
100
AcDbEntity
  8
0
  6
Continuous
 62
     1
100
AcDbPolyline
 90
     4
 70
   128
 43
0.0
 10
626.063690167
 20
406.0
 10
626.063690167
 20
431.0
 10
623.563690167
 20
431.0
 10
623.563690167
 20
406.0
  0
LINE
  5
61D
330
1F
100
AcDbEntity
  8
0
  6
Continuous
 62
     1
100
AcDbLine
 10
623.563690167
 20
376.0
 30
0.0
 11
626.063690167
 21
376.0
 31
0.0
  0
LWPOLYLINE
  5
61F
330
1F
100
AcDbEntity
  8
0
  6
Continuous
 62
     1
100
AcDbPolyline
 90
     4
 70
   128
 43
0.0
 10
626.063690167
 20
376.0
 10
626.063690167
 20
401.0
 10
623.563690167
 20
401.0
 10
623.563690167
 20
376.0
  0
LINE
  5
620
330
1F
100
AcDbEntity
  8
0
  6
Continuous
 62
     1
100
AcDbLine
 10
628.563690167
 20
436.0
 30
0.0
 11
631.063690167
 21
436.0
 31
0.0
  0
LWPOLYLINE
  5
622
330
1F
100
AcDbEntity
  8
0
  6
Continuous
 62
     1
100
AcDbPolyline
 90
     4
 70
   128
 43
0.0
 10
631.063690167
 20
436.0
 10
631.063690167
 20
461.0
 10
628.563690167
 20
461.0
 10
628.563690167
 20
436.0
  0
LINE
  5
623
330
1F
100
AcDbEntity
  8
0
  6
Continuous
 62
     1
100
AcDbLine
 10
628.563690167
 20
406.0
 30
0.0
 11
631.063690167
 21
406.0
 31
0.0
  0
LWPOLYLINE
  5
625
330
1F
100
AcDbEntity
  8
0
  6
Continuous
 62
     1
100
AcDbPolyline
 90
     4
 70
   128
 43
0.0
 10
631.063690167
 20
406.0
 10
631.063690167
 20
431.0
 10
628.563690167
 20
431.0
 10
628.563690167
 20
406.0
  0
LINE
  5
626
330
1F
100
AcDbEntity
  8
0
  6
Continuous
 62
     1
100
AcDbLine
 10
628.563690167
 20
376.0
 30
0.0
 11
631.063690167
 21
376.0
 31
0.0
  0
LWPOLYLINE
  5
628
330
1F
100
AcDbEntity
  8
0
  6
Continuous
 62
     1
100
AcDbPolyline
 90
     4
 70
   128
 43
0.0
 10
631.063690167
 20
376.0
 10
631.063690167
 20
401.0
 10
628.563690167
 20
401.0
 10
628.563690167
 20
376.0
  0
LINE
  5
629
330
1F
100
AcDbEntity
  8
0
  6
Continuous
 62
     1
100
AcDbLine
 10
633.563690167
 20
436.0
 30
0.0
 11
636.063690167
 21
436.0
 31
0.0
  0
LWPOLYLINE
  5
62B
330
1F
100
AcDbEntity
  8
0
  6
Continuous
 62
     1
100
AcDbPolyline
 90
     4
 70
   128
 43
0.0
 10
636.063690167
 20
436.0
 10
636.063690167
 20
461.0
 10
633.563690167
 20
461.0
 10
633.563690167
 20
436.0
  0
LINE
  5
62C
330
1F
100
AcDbEntity
  8
0
  6
Continuous
 62
     1
100
AcDbLine
 10
633.563690167
 20
406.0
 30
0.0
 11
636.063690167
 21
406.0
 31
0.0
  0
LWPOLYLINE
  5
62E
330
1F
100
AcDbEntity
  8
0
  6
Continuous
 62
     1
100
AcDbPolyline
 90
     4
 70
   128
 43
0.0
 10
636.063690167
 20
406.0
 10
636.063690167
 20
431.0
 10
633.563690167
 20
431.0
 10
633.563690167
 20
406.0
  0
LINE
  5
62F
330
1F
100
AcDbEntity
  8
0
  6
Continuous
 62
     1
100
AcDbLine
 10
633.563690167
 20
376.0
 30
0.0
 11
636.063690167
 21
376.0
 31
0.0
  0
LWPOLYLINE
  5
631
330
1F
100
AcDbEntity
  8
0
  6
Continuous
 62
     1
100
AcDbPolyline
 90
     4
 70
   128
 43
0.0
 10
636.063690167
 20
376.0
 10
636.063690167
 20
401.0
 10
633.563690167
 20
401.0
 10
633.563690167
 20
376.0
  0
LINE
  5
632
330
1F
100
AcDbEntity
  8
0
  6
Continuous
 62
     1
100
AcDbLine
 10
638.563690167
 20
436.0
 30
0.0
 11
641.063690167
 21
436.0
 31
0.0
  0
LWPOLYLINE
  5
634
330
1F
100
AcDbEntity
  8
0
  6
Continuous
 62
     1
100
AcDbPolyline
 90
     4
 70
   128
 43
0.0
 10
641.063690167
 20
436.0
 10
641.063690167
 20
461.0
 10
638.563690167
 20
461.0
 10
638.563690167
 20
436.0
  0
LINE
  5
635
330
1F
100
AcDbEntity
  8
0
  6
Continuous
 62
     1
100
AcDbLine
 10
638.563690167
 20
406.0
 30
0.0
 11
641.063690167
 21
406.0
 31
0.0
  0
LWPOLYLINE
  5
637
330
1F
100
AcDbEntity
  8
0
  6
Continuous
 62
     1
100
AcDbPolyline
 90
     4
 70
   128
 43
0.0
 10
641.063690167
 20
406.0
 10
641.063690167
 20
431.0
 10
638.563690167
 20
431.0
 10
638.563690167
 20
406.0
  0
LINE
  5
638
330
1F
100
AcDbEntity
  8
0
  6
Continuous
 62
     1
100
AcDbLine
 10
638.563690167
 20
376.0
 30
0.0
 11
641.063690167
 21
376.0
 31
0.0
  0
LWPOLYLINE
  5
63A
330
1F
100
AcDbEntity
  8
0
  6
Continuous
 62
     1
100
AcDbPolyline
 90
     4
 70
   128
 43
0.0
 10
641.063690167
 20
376.0
 10
641.063690167
 20
401.0
 10
638.563690167
 20
401.0
 10
638.563690167
 20
376.0
  0
LINE
  5
63B
330
1F
100
AcDbEntity
  8
0
  6
Continuous
 62
     1
100
AcDbLine
 10
643.563690167
 20
436.0
 30
0.0
 11
646.063690167
 21
436.0
 31
0.0
  0
LWPOLYLINE
  5
63D
330
1F
100
AcDbEntity
  8
0
  6
Continuous
 62
     1
100
AcDbPolyline
 90
     4
 70
   128
 43
0.0
 10
646.063690167
 20
436.0
 10
646.063690167
 20
461.0
 10
643.563690167
 20
461.0
 10
643.563690167
 20
436.0
  0
LINE
  5
63E
330
1F
100
AcDbEntity
  8
0
  6
Continuous
 62
     1
100
AcDbLine
 10
643.563690167
 20
406.0
 30
0.0
 11
646.063690167
 21
406.0
 31
0.0
  0
LWPOLYLINE
  5
640
330
1F
100
AcDbEntity
  8
0
  6
Continuous
 62
     1
100
AcDbPolyline
 90
     4
 70
   128
 43
0.0
 10
646.063690167
 20
406.0
 10
646.063690167
 20
431.0
 10
643.563690167
 20
431.0
 10
643.563690167
 20
406.0
  0
LINE
  5
641
330
1F
100
AcDbEntity
  8
0
  6
Continuous
 62
     1
100
AcDbLine
 10
643.563690167
 20
376.0
 30
0.0
 11
646.063690167
 21
376.0
 31
0.0
  0
LWPOLYLINE
  5
643
330
1F
100
AcDbEntity
  8
0
  6
Continuous
 62
     1
100
AcDbPolyline
 90
     4
 70
   128
 43
0.0
 10
646.063690167
 20
376.0
 10
646.063690167
 20
401.0
 10
643.563690167
 20
401.0
 10
643.563690167
 20
376.0
  0
LINE
  5
644
330
1F
100
AcDbEntity
  8
0
  6
Continuous
 62
     1
100
AcDbLine
 10
648.563690167
 20
436.0
 30
0.0
 11
651.063690167
 21
436.0
 31
0.0
  0
LWPOLYLINE
  5
646
330
1F
100
AcDbEntity
  8
0
  6
Continuous
 62
     1
100
AcDbPolyline
 90
     4
 70
   128
 43
0.0
 10
651.063690167
 20
436.0
 10
651.063690167
 20
461.0
 10
648.563690167
 20
461.0
 10
648.563690167
 20
436.0
  0
LINE
  5
647
330
1F
100
AcDbEntity
  8
0
  6
Continuous
 62
     1
100
AcDbLine
 10
648.563690167
 20
406.0
 30
0.0
 11
651.063690167
 21
406.0
 31
0.0
  0
LWPOLYLINE
  5
649
330
1F
100
AcDbEntity
  8
0
  6
Continuous
 62
     1
100
AcDbPolyline
 90
     4
 70
   128
 43
0.0
 10
651.063690167
 20
406.0
 10
651.063690167
 20
431.0
 10
648.563690167
 20
431.0
 10
648.563690167
 20
406.0
  0
LINE
  5
64A
330
1F
100
AcDbEntity
  8
0
  6
Continuous
 62
     1
100
AcDbLine
 10
648.563690167
 20
376.0
 30
0.0
 11
651.063690167
 21
376.0
 31
0.0
  0
LWPOLYLINE
  5
64C
330
1F
100
AcDbEntity
  8
0
  6
Continuous
 62
     1
100
AcDbPolyline
 90
     4
 70
   128
 43
0.0
 10
651.063690167
 20
376.0
 10
651.063690167
 20
401.0
 10
648.563690167
 20
401.0
 10
648.563690167
 20
376.0
  0
LINE
  5
64D
330
1F
100
AcDbEntity
  8
0
  6
Continuous
 62
     1
100
AcDbLine
 10
653.563690167
 20
436.0
 30
0.0
 11
656.063690167
 21
436.0
 31
0.0
  0
LWPOLYLINE
  5
64F
330
1F
100
AcDbEntity
  8
0
  6
Continuous
 62
     1
100
AcDbPolyline
 90
     4
 70
   128
 43
0.0
 10
656.063690167
 20
436.0
 10
656.063690167
 20
461.0
 10
653.563690167
 20
461.0
 10
653.563690167
 20
436.0
  0
LINE
  5
650
330
1F
100
AcDbEntity
  8
0
  6
Continuous
 62
     1
100
AcDbLine
 10
653.563690167
 20
406.0
 30
0.0
 11
656.063690167
 21
406.0
 31
0.0
  0
LWPOLYLINE
  5
652
330
1F
100
AcDbEntity
  8
0
  6
Continuous
 62
     1
100
AcDbPolyline
 90
     4
 70
   128
 43
0.0
 10
656.063690167
 20
406.0
 10
656.063690167
 20
431.0
 10
653.563690167
 20
431.0
 10
653.563690167
 20
406.0
  0
LINE
  5
653
330
1F
100
AcDbEntity
  8
0
  6
Continuous
 62
     1
100
AcDbLine
 10
653.563690167
 20
376.0
 30
0.0
 11
656.063690167
 21
376.0
 31
0.0
  0
LWPOLYLINE
  5
655
330
1F
100
AcDbEntity
  8
0
  6
Continuous
 62
     1
100
AcDbPolyline
 90
     4
 70
   128
 43
0.0
 10
656.063690167
 20
376.0
 10
656.063690167
 20
401.0
 10
653.563690167
 20
401.0
 10
653.563690167
 20
376.0
  0
LINE
  5
656
330
1F
100
AcDbEntity
  8
0
  6
Continuous
 62
     1
100
AcDbLine
 10
658.563690167
 20
436.0
 30
0.0
 11
661.063690167
 21
436.0
 31
0.0
  0
LWPOLYLINE
  5
658
330
1F
100
AcDbEntity
  8
0
  6
Continuous
 62
     1
100
AcDbPolyline
 90
     4
 70
   128
 43
0.0
 10
661.063690167
 20
436.0
 10
661.063690167
 20
461.0
 10
658.563690167
 20
461.0
 10
658.563690167
 20
436.0
  0
LINE
  5
659
330
1F
100
AcDbEntity
  8
0
  6
Continuous
 62
     1
100
AcDbLine
 10
658.563690167
 20
406.0
 30
0.0
 11
661.063690167
 21
406.0
 31
0.0
  0
LWPOLYLINE
  5
65B
330
1F
100
AcDbEntity
  8
0
  6
Continuous
 62
     1
100
AcDbPolyline
 90
     4
 70
   128
 43
0.0
 10
661.063690167
 20
406.0
 10
661.063690167
 20
431.0
 10
658.563690167
 20
431.0
 10
658.563690167
 20
406.0
  0
LINE
  5
65C
330
1F
100
AcDbEntity
  8
0
  6
Continuous
 62
     1
100
AcDbLine
 10
658.563690167
 20
376.0
 30
0.0
 11
661.063690167
 21
376.0
 31
0.0
  0
LWPOLYLINE
  5
65E
330
1F
100
AcDbEntity
  8
0
  6
Continuous
 62
     1
100
AcDbPolyline
 90
     4
 70
   128
 43
0.0
 10
661.063690167
 20
376.0
 10
661.063690167
 20
401.0
 10
658.563690167
 20
401.0
 10
658.563690167
 20
376.0
  0
LINE
  5
65F
330
1F
100
AcDbEntity
  8
0
  6
Continuous
 62
     1
100
AcDbLine
 10
669.063690167
 20
313.5
 30
0.0
 11
671.563690167
 21
313.5
 31
0.0
  0
LWPOLYLINE
  5
661
330
1F
100
AcDbEntity
  8
0
  6
Continuous
 62
     1
100
AcDbPolyline
 90
     4
 70
   128
 43
0.0
 10
671.563690167
 20
313.5
 10
671.563690167
 20
338.5
 10
669.063690167
 20
338.5
 10
669.063690167
 20
313.5
  0
LINE
  5
662
330
1F
100
AcDbEntity
  8
0
  6
Continuous
 62
     1
100
AcDbLine
 10
669.063690167
 20
283.5
 30
0.0
 11
671.563690167
 21
283.5
 31
0.0
  0
LWPOLYLINE
  5
664
330
1F
100
AcDbEntity
  8
0
  6
Continuous
 62
     1
100
AcDbPolyline
 90
     4
 70
   128
 43
0.0
 10
671.563690167
 20
283.5
 10
671.563690167
 20
308.5
 10
669.063690167
 20
308.5
 10
669.063690167
 20
283.5
  0
LINE
  5
665
330
1F
100
AcDbEntity
  8
0
  6
Continuous
 62
     1
100
AcDbLine
 10
674.063690167
 20
313.5
 30
0.0
 11
676.563690167
 21
313.5
 31
0.0
  0
LWPOLYLINE
  5
667
330
1F
100
AcDbEntity
  8
0
  6
Continuous
 62
     1
100
AcDbPolyline
 90
     4
 70
   128
 43
0.0
 10
676.563690167
 20
313.5
 10
676.563690167
 20
338.5
 10
674.063690167
 20
338.5
 10
674.063690167
 20
313.5
  0
LINE
  5
668
330
1F
100
AcDbEntity
  8
0
  6
Continuous
 62
     1
100
AcDbLine
 10
674.063690167
 20
283.5
 30
0.0
 11
676.563690167
 21
283.5
 31
0.0
  0
LWPOLYLINE
  5
66A
330
1F
100
AcDbEntity
  8
0
  6
Continuous
 62
     1
100
AcDbPolyline
 90
     4
 70
   128
 43
0.0
 10
676.563690167
 20
283.5
 10
676.563690167
 20
308.5
 10
674.063690167
 20
308.5
 10
674.063690167
 20
283.5
  0
LINE
  5
66B
330
1F
100
AcDbEntity
  8
0
  6
Continuous
 62
     1
100
AcDbLine
 10
679.063690167
 20
313.5
 30
0.0
 11
681.563690167
 21
313.5
 31
0.0
  0
LWPOLYLINE
  5
66D
330
1F
100
AcDbEntity
  8
0
  6
Continuous
 62
     1
100
AcDbPolyline
 90
     4
 70
   128
 43
0.0
 10
681.563690167
 20
313.5
 10
681.563690167
 20
338.5
 10
679.063690167
 20
338.5
 10
679.063690167
 20
313.5
  0
LINE
  5
66E
330
1F
100
AcDbEntity
  8
0
  6
Continuous
 62
     1
100
AcDbLine
 10
679.063690167
 20
283.5
 30
0.0
 11
681.563690167
 21
283.5
 31
0.0
  0
LWPOLYLINE
  5
670
330
1F
100
AcDbEntity
  8
0
  6
Continuous
 62
     1
100
AcDbPolyline
 90
     4
 70
   128
 43
0.0
 10
681.563690167
 20
283.5
 10
681.563690167
 20
308.5
 10
679.063690167
 20
308.5
 10
679.063690167
 20
283.5
  0
LINE
  5
671
330
1F
100
AcDbEntity
  8
0
  6
Continuous
 62
     1
100
AcDbLine
 10
684.063690167
 20
313.5
 30
0.0
 11
686.563690167
 21
313.5
 31
0.0
  0
LWPOLYLINE
  5
673
330
1F
100
AcDbEntity
  8
0
  6
Continuous
 62
     1
100
AcDbPolyline
 90
     4
 70
   128
 43
0.0
 10
686.563690167
 20
313.5
 10
686.563690167
 20
338.5
 10
684.063690167
 20
338.5
 10
684.063690167
 20
313.5
  0
LINE
  5
674
330
1F
100
AcDbEntity
  8
0
  6
Continuous
 62
     1
100
AcDbLine
 10
684.063690167
 20
283.5
 30
0.0
 11
686.563690167
 21
283.5
 31
0.0
  0
LWPOLYLINE
  5
676
330
1F
100
AcDbEntity
  8
0
  6
Continuous
 62
     1
100
AcDbPolyline
 90
     4
 70
   128
 43
0.0
 10
686.563690167
 20
283.5
 10
686.563690167
 20
308.5
 10
684.063690167
 20
308.5
 10
684.063690167
 20
283.5
  0
LINE
  5
677
330
1F
100
AcDbEntity
  8
0
  6
Continuous
 62
     1
100
AcDbLine
 10
689.063690167
 20
313.5
 30
0.0
 11
691.563690167
 21
313.5
 31
0.0
  0
LWPOLYLINE
  5
679
330
1F
100
AcDbEntity
  8
0
  6
Continuous
 62
     1
100
AcDbPolyline
 90
     4
 70
   128
 43
0.0
 10
691.563690167
 20
313.5
 10
691.563690167
 20
338.5
 10
689.063690167
 20
338.5
 10
689.063690167
 20
313.5
  0
LINE
  5
67A
330
1F
100
AcDbEntity
  8
0
  6
Continuous
 62
     1
100
AcDbLine
 10
689.063690167
 20
283.5
 30
0.0
 11
691.563690167
 21
283.5
 31
0.0
  0
LWPOLYLINE
  5
67C
330
1F
100
AcDbEntity
  8
0
  6
Continuous
 62
     1
100
AcDbPolyline
 90
     4
 70
   128
 43
0.0
 10
691.563690167
 20
283.5
 10
691.563690167
 20
308.5
 10
689.063690167
 20
308.5
 10
689.063690167
 20
283.5
  0
LINE
  5
67D
330
1F
100
AcDbEntity
  8
0
  6
Continuous
 62
     1
100
AcDbLine
 10
694.063690167
 20
313.5
 30
0.0
 11
696.563690167
 21
313.5
 31
0.0
  0
LWPOLYLINE
  5
67F
330
1F
100
AcDbEntity
  8
0
  6
Continuous
 62
     1
100
AcDbPolyline
 90
     4
 70
   128
 43
0.0
 10
696.563690167
 20
313.5
 10
696.563690167
 20
338.5
 10
694.063690167
 20
338.5
 10
694.063690167
 20
313.5
  0
LINE
  5
680
330
1F
100
AcDbEntity
  8
0
  6
Continuous
 62
     1
100
AcDbLine
 10
694.063690167
 20
283.5
 30
0.0
 11
696.563690167
 21
283.5
 31
0.0
  0
LWPOLYLINE
  5
682
330
1F
100
AcDbEntity
  8
0
  6
Continuous
 62
     1
100
AcDbPolyline
 90
     4
 70
   128
 43
0.0
 10
696.563690167
 20
283.5
 10
696.563690167
 20
308.5
 10
694.063690167
 20
308.5
 10
694.063690167
 20
283.5
  0
LINE
  5
683
330
1F
100
AcDbEntity
  8
0
  6
Continuous
 62
     1
100
AcDbLine
 10
640.563690167
 20
346.78
 30
0.0
 11
627.563690167
 21
346.78
 31
0.0
  0
POINT
  5
684
330
1F
100
AcDbEntity
  8
0
  6
Continuous
 62
     1
100
AcDbPoint
 10
627.563690167
 20
346.78
 30
0.0
  0
LINE
  5
685
330
1F
100
AcDbEntity
  8
0
  6
Continuous
 62
     1
100
AcDbLine
 10
627.563690167
 20
346.78
 30
0.0
 11
627.563690167
 21
347.06
 31
0.0
  0
LINE
  5
686
330
1F
100
AcDbEntity
  8
0
  6
Continuous
 62
     1
100
AcDbLine
 10
627.563690167
 20
346.78
 30
0.0
 11
640.623690167
 21
346.78
 31
0.0
  0
LINE
  5
687
330
1F
100
AcDbEntity
  8
0
  6
Continuous
 62
     1
100
AcDbLine
 10
640.563690167
 20
347.06
 30
0.0
 11
640.563690167
 21
346.78
 31
0.0
  0
LINE
  5
688
330
1F
100
AcDbEntity
  8
0
  6
Continuous
 62
     1
100
AcDbLine
 10
639.563690167
 20
347.06
 30
0.0
 11
639.563690167
 21
346.78
 31
0.0
  0
LINE
  5
689
330
1F
100
AcDbEntity
  8
0
  6
Continuous
 62
     1
100
AcDbLine
 10
628.563690167
 20
347.06
 30
0.0
 11
628.563690167
 21
346.78
 31
0.0
  0
LINE
  5
68A
330
1F
100
AcDbEntity
  8
0
  6
Continuous
 62
     1
100
AcDbLine
 10
627.563690167
 20
347.06
 30
0.0
 11
640.563690167
 21
347.06
 31
0.0
  0
LINE
  5
68B
330
1F
100
AcDbEntity
  8
0
  6
Continuous
 62
     1
100
AcDbLine
 10
640.563690167
 20
348.48
 30
0.0
 11
640.563690167
 21
347.06
 31
0.0
  0
LINE
  5
68C
330
1F
100
AcDbEntity
  8
0
  6
Continuous
 62
     1
100
AcDbLine
 10
640.563690167
 20
348.48
 30
0.0
 11
627.563690167
 21
348.48
 31
0.0
  0
LINE
  5
68D
330
1F
100
AcDbEntity
  8
0
  6
Continuous
 62
     1
100
AcDbLine
 10
627.563690167
 20
348.48
 30
0.0
 11
627.563690167
 21
347.06
 31
0.0
  0
LINE
  5
68E
330
1F
100
AcDbEntity
  8
0
  6
Continuous
 62
     1
100
AcDbLine
 10
627.563690167
 20
348.48
 30
0.0
 11
627.563690167
 21
354.68
 31
0.0
  0
LINE
  5
68F
330
1F
100
AcDbEntity
  8
0
  6
Continuous
 62
     1
100
AcDbLine
 10
640.563690167
 20
354.68
 30
0.0
 11
640.563690167
 21
348.48
 31
0.0
  0
LINE
  5
690
330
1F
100
AcDbEntity
  8
0
  6
Continuous
 62
     1
100
AcDbLine
 10
639.563690167
 20
348.48
 30
0.0
 11
639.563690167
 21
354.68
 31
0.0
  0
LINE
  5
691
330
1F
100
AcDbEntity
  8
0
  6
Continuous
 62
     1
100
AcDbLine
 10
628.563690167
 20
354.68
 30
0.0
 11
628.563690167
 21
348.48
 31
0.0
  0
CIRCLE
  5
692
330
1F
100
AcDbEntity
  8
0
  6
Continuous
 62
     1
100
AcDbCircle
 10
634.063690167
 20
351.58
 30
0.0
 40
3.0
  0
LINE
  5
693
330
1F
100
AcDbEntity
  8
0
  6
Continuous
 62
     1
100
AcDbLine
 10
632.649476605
 20
350.165786438
 30
0.0
 11
635.47790373
 21
352.994213562
 31
0.0
  0
LINE
  5
694
330
1F
100
AcDbEntity
  8
0
  6
Continuous
 62
     1
100
AcDbLine
 10
632.649476605
 20
352.994213562
 30
0.0
 11
635.47790373
 21
350.165786438
 31
0.0
  0
LINE
  5
695
330
1F
100
AcDbEntity
  8
0
  6
Continuous
 62
     1
100
AcDbLine
 10
640.563690167
 20
356.1
 30
0.0
 11
640.563690167
 21
354.68
 31
0.0
  0
LINE
  5
696
330
1F
100
AcDbEntity
  8
0
  6
Continuous
 62
     1
100
AcDbLine
 10
640.563690167
 20
356.1
 30
0.0
 11
627.563690167
 21
356.1
 31
0.0
  0
LINE
  5
697
330
1F
100
AcDbEntity
  8
0
  6
Continuous
 62
     1
100
AcDbLine
 10
627.563690167
 20
356.1
 30
0.0
 11
627.563690167
 21
354.68
 31
0.0
  0
LINE
  5
698
330
1F
100
AcDbEntity
  8
0
  6
Continuous
 62
     1
100
AcDbLine
 10
627.563690167
 20
356.1
 30
0.0
 11
627.563690167
 21
362.3
 31
0.0
  0
LINE
  5
699
330
1F
100
AcDbEntity
  8
0
  6
Continuous
 62
     1
100
AcDbLine
 10
640.563690167
 20
362.3
 30
0.0
 11
640.563690167
 21
356.1
 31
0.0
  0
LINE
  5
69A
330
1F
100
AcDbEntity
  8
0
  6
Continuous
 62
     1
100
AcDbLine
 10
639.563690167
 20
356.1
 30
0.0
 11
639.563690167
 21
362.3
 31
0.0
  0
LINE
  5
69B
330
1F
100
AcDbEntity
  8
0
  6
Continuous
 62
     1
100
AcDbLine
 10
628.563690167
 20
362.3
 30
0.0
 11
628.563690167
 21
356.1
 31
0.0
  0
CIRCLE
  5
69C
330
1F
100
AcDbEntity
  8
0
  6
Continuous
 62
     1
100
AcDbCircle
 10
634.063690167
 20
359.2
 30
0.0
 40
3.0
  0
LINE
  5
69D
330
1F
100
AcDbEntity
  8
0
  6
Continuous
 62
     1
100
AcDbLine
 10
632.649476605
 20
357.785786438
 30
0.0
 11
635.47790373
 21
360.614213562
 31
0.0
  0
LINE
  5
69E
330
1F
100
AcDbEntity
  8
0
  6
Continuous
 62
     1
100
AcDbLine
 10
632.649476605
 20
360.614213562
 30
0.0
 11
635.47790373
 21
357.785786438
 31
0.0
  0
LINE
  5
69F
330
1F
100
AcDbEntity
  8
0
  6
Continuous
 62
     1
100
AcDbLine
 10
627.563690167
 20
354.68
 30
0.0
 11
640.563690167
 21
354.68
 31
0.0
  0
LINE
  5
6A0
330
1F
100
AcDbEntity
  8
0
  6
Continuous
 62
     1
100
AcDbLine
 10
640.563690167
 20
364.0
 30
0.0
 11
627.563690167
 21
364.0
 31
0.0
  0
POINT
  5
6A1
330
1F
100
AcDbEntity
  8
0
  6
Continuous
 62
     1
100
AcDbPoint
 10
627.563690167
 20
364.0
 30
0.0
  0
LINE
  5
6A2
330
1F
100
AcDbEntity
  8
0
  6
Continuous
 62
     1
100
AcDbLine
 10
627.563690167
 20
364.0
 30
0.0
 11
627.563690167
 21
363.72
 31
0.0
  0
LINE
  5
6A3
330
1F
100
AcDbEntity
  8
0
  6
Continuous
 62
     1
100
AcDbLine
 10
627.563690167
 20
364.0
 30
0.0
 11
640.623690167
 21
364.0
 31
0.0
  0
LINE
  5
6A4
330
1F
100
AcDbEntity
  8
0
  6
Continuous
 62
     1
100
AcDbLine
 10
640.563690167
 20
363.72
 30
0.0
 11
640.563690167
 21
364.0
 31
0.0
  0
LINE
  5
6A5
330
1F
100
AcDbEntity
  8
0
  6
Continuous
 62
     1
100
AcDbLine
 10
639.563690167
 20
363.72
 30
0.0
 11
639.563690167
 21
364.0
 31
0.0
  0
LINE
  5
6A6
330
1F
100
AcDbEntity
  8
0
  6
Continuous
 62
     1
100
AcDbLine
 10
628.563690167
 20
363.72
 30
0.0
 11
628.563690167
 21
364.0
 31
0.0
  0
LINE
  5
6A7
330
1F
100
AcDbEntity
  8
0
  6
Continuous
 62
     1
100
AcDbLine
 10
627.563690167
 20
364.0
 30
0.0
 11
627.563690167
 21
363.72
 31
0.0
  0
LINE
  5
6A8
330
1F
100
AcDbEntity
  8
0
  6
Continuous
 62
     1
100
AcDbLine
 10
640.563690167
 20
363.72
 30
0.0
 11
640.563690167
 21
364.0
 31
0.0
  0
LINE
  5
6A9
330
1F
100
AcDbEntity
  8
0
  6
Continuous
 62
     1
100
AcDbLine
 10
639.563690167
 20
363.72
 30
0.0
 11
639.563690167
 21
364.0
 31
0.0
  0
LINE
  5
6AA
330
1F
100
AcDbEntity
  8
0
  6
Continuous
 62
     1
100
AcDbLine
 10
628.563690167
 20
363.72
 30
0.0
 11
628.563690167
 21
364.0
 31
0.0
  0
LINE
  5
6AB
330
1F
100
AcDbEntity
  8
0
  6
Continuous
 62
     1
100
AcDbLine
 10
627.563690167
 20
363.72
 30
0.0
 11
640.563690167
 21
363.72
 31
0.0
  0
LINE
  5
6AC
330
1F
100
AcDbEntity
  8
0
  6
Continuous
 62
     1
100
AcDbLine
 10
640.563690167
 20
362.3
 30
0.0
 11
640.563690167
 21
363.72
 31
0.0
  0
LINE
  5
6AD
330
1F
100
AcDbEntity
  8
0
  6
Continuous
 62
     1
100
AcDbLine
 10
640.563690167
 20
362.3
 30
0.0
 11
627.563690167
 21
362.3
 31
0.0
  0
LINE
  5
6AE
330
1F
100
AcDbEntity
  8
0
  6
Continuous
 62
     1
100
AcDbLine
 10
627.563690167
 20
362.3
 30
0.0
 11
627.563690167
 21
363.72
 31
0.0
  0
LINE
  5
6AF
330
1F
100
AcDbEntity
  8
0
  6
Continuous
 62
     1
100
AcDbLine
 10
627.563690167
 20
362.3
 30
0.0
 11
627.563690167
 21
356.1
 31
0.0
  0
LINE
  5
6B0
330
1F
100
AcDbEntity
  8
0
  6
Continuous
 62
     1
100
AcDbLine
 10
640.563690167
 20
356.1
 30
0.0
 11
640.563690167
 21
362.3
 31
0.0
  0
LINE
  5
6B1
330
1F
100
AcDbEntity
  8
0
  6
Continuous
 62
     1
100
AcDbLine
 10
639.563690167
 20
362.3
 30
0.0
 11
639.563690167
 21
356.1
 31
0.0
  0
LINE
  5
6B2
330
1F
100
AcDbEntity
  8
0
  6
Continuous
 62
     1
100
AcDbLine
 10
628.563690167
 20
356.1
 30
0.0
 11
628.563690167
 21
362.3
 31
0.0
  0
LINE
  5
6B3
330
1F
100
AcDbEntity
  8
0
  6
Continuous
 62
     2
100
AcDbLine
 10
639.563690167
 20
289.0
 30
0.0
 11
639.563690167
 21
342.0
 31
0.0
  0
LINE
  5
6B4
330
1F
100
AcDbEntity
  8
0
  6
Continuous
 62
     2
100
AcDbLine
 10
630.563690167
 20
289.0
 30
0.0
 11
639.563690167
 21
289.0
 31
0.0
  0
LINE
  5
6B5
330
1F
100
AcDbEntity
  8
0
  6
Continuous
 62
     2
100
AcDbLine
 10
639.563690167
 20
342.0
 30
0.0
 11
630.563690167
 21
342.0
 31
0.0
  0
LINE
  5
6B6
330
1F
100
AcDbEntity
  8
0
  6
Continuous
 62
     2
100
AcDbLine
 10
630.563690167
 20
342.0
 30
0.0
 11
630.563690167
 21
289.0
 31
0.0
  0
LWPOLYLINE
  5
6B8
330
1F
100
AcDbEntity
  8
0
  6
Continuous
 62
     2
100
AcDbPolyline
 90
     4
 70
   129
 43
0.0
 10
689.563690167
 20
343.0
 10
698.563690167
 20
343.0
 10
698.563690167
 20
365.0
 10
689.563690167
 20
365.0
  0
LINE
  5
6B9
330
1F
100
AcDbEntity
  8
0
  6
Continuous
 62
     1
100
AcDbLine
 10
662.563690167
 20
448.5
 30
0.0
 11
684.563690167
 21
448.5
 31
0.0
  0
LINE
  5
6BA
330
1F
100
AcDbEntity
  8
0
  6
Continuous
 62
     1
100
AcDbLine
 10
684.563690167
 20
448.5
 30
0.0
 11
684.563690167
 21
342.5
 31
0.0
  0
LINE
  5
6BB
330
1F
100
AcDbEntity
  8
0
  6
Continuous
 62
     1
100
AcDbLine
 10
684.563690167
 20
342.5
 30
0.0
 11
667.563690167
 21
342.5
 31
0.0
  0
LINE
  5
6BC
330
1F
100
AcDbEntity
  8
0
  6
Continuous
 62
     1
100
AcDbLine
 10
667.563690167
 20
342.5
 30
0.0
 11
667.563690167
 21
289.5
 31
0.0
  0
LINE
  5
6BD
330
1F
100
AcDbEntity
  8
0
  6
Continuous
 62
     1
100
AcDbLine
 10
667.563690167
 20
289.5
 30
0.0
 11
645.563690167
 21
289.5
 31
0.0
  0
LINE
  5
6BE
330
1F
100
AcDbEntity
  8
0
  6
Continuous
 62
     1
100
AcDbLine
 10
645.563690167
 20
289.5
 30
0.0
 11
645.563690167
 21
375.5
 31
0.0
  0
LINE
  5
6BF
330
1F
100
AcDbEntity
  8
0
  6
Continuous
 62
     1
100
AcDbLine
 10
645.563690167
 20
375.5
 30
0.0
 11
662.563690167
 21
375.5
 31
0.0
  0
LINE
  5
6C0
330
1F
100
AcDbEntity
  8
0
  6
Continuous
 62
     1
100
AcDbLine
 10
662.563690167
 20
375.5
 30
0.0
 11
662.563690167
 21
448.5
 31
0.0
  0
TEXT
  5
6C1
330
1F
100
AcDbEntity
  8
0
  6
Continuous
 62
     1
100
AcDbText
 10
647.063690167
 20
302.5
 30
0.0
 40
6.0
  1
○
 50
270.0
 41
1.0
  7
KANJI0
100
AcDbText
  0
TEXT
  5
6C3
330
1F
100
AcDbEntity
  8
0
  6
Continuous
 62
     1
100
AcDbText
 10
647.063690167
 20
302.5
 30
0.0
 40
6.0
  1
－
 50
270.0
 41
1.0
  7
KANJI0
100
AcDbText
  0
TEXT
  5
6C4
330
1F
100
AcDbEntity
  8
0
  6
Continuous
 62
     1
100
AcDbText
 10
679.563690167
 20
441.0
 30
0.0
 40
3.0
  1
Ｖ
 50
270.0
 41
1.0
  7
KANJI1
100
AcDbText
  0
TEXT
  5
6C6
330
1F
100
AcDbEntity
  8
0
  6
Continuous
 62
     1
100
AcDbText
 10
679.563690167
 20
431.0
 30
0.0
 40
3.0
  1
Ｕ
 50
270.0
 41
1.0
  7
KANJI1
100
AcDbText
  0
TEXT
  5
6C7
330
1F
100
AcDbEntity
  8
0
  6
Continuous
 62
     1
100
AcDbText
 10
679.563690167
 20
421.0
 30
0.0
 40
3.0
  1
ＦＧ
 50
270.0
 41
0.5
  7
KANJI2
100
AcDbText
  0
TEXT
  5
6C9
330
1F
100
AcDbEntity
  8
0
  6
Continuous
 62
     1
100
AcDbText
 10
679.563690167
 20
411.0
 30
0.0
 40
3.0
  1
Ｇ
 50
270.0
 41
1.0
  7
KANJI1
100
AcDbText
  0
TEXT
  5
6CA
330
1F
100
AcDbEntity
  8
0
  6
Continuous
 62
     1
100
AcDbText
 10
679.563690167
 20
401.0
 30
0.0
 40
3.0
  1
Ｓ
 50
270.0
 41
1.0
  7
KANJI1
100
AcDbText
  0
TEXT
  5
6CB
330
1F
100
AcDbEntity
  8
0
  6
Continuous
 62
     1
100
AcDbText
 10
679.563690167
 20
391.0
 30
0.0
 40
3.0
  1
Ｍ
 50
270.0
 41
1.0
  7
KANJI1
100
AcDbText
  0
TEXT
  5
6CC
330
1F
100
AcDbEntity
  8
0
  6
Continuous
 62
     1
100
AcDbText
 10
679.563690167
 20
381.0
 30
0.0
 40
3.0
  1
Ｔ
 50
270.0
 41
1.0
  7
KANJI1
100
AcDbText
  0
LINE
  5
6CD
330
1F
100
AcDbEntity
  8
0
  6
Continuous
 62
     1
100
AcDbLine
 10
679.563690167
 20
439.5
 30
0.0
 11
678.063690167
 21
439.5
 31
0.0
  0
LINE
  5
6CE
330
1F
100
AcDbEntity
  8
0
  6
Continuous
 62
     1
100
AcDbLine
 10
678.063690167
 20
439.5
 30
0.0
 11
678.063690167
 21
429.5
 31
0.0
  0
LINE
  5
6CF
330
1F
100
AcDbEntity
  8
0
  6
Continuous
 62
     1
100
AcDbLine
 10
678.063690167
 20
429.5
 30
0.0
 11
679.563690167
 21
429.5
 31
0.0
  0
TEXT
  5
6D0
330
1F
100
AcDbEntity
  8
0
  6
Continuous
 62
     1
100
AcDbText
 10
647.063690167
 20
332.5
 30
0.0
 40
6.0
  1
＋
 50
270.0
 41
1.0
  7
KANJI3
100
AcDbText
  0
TEXT
  5
6D2
330
1F
100
AcDbEntity
  8
0
  6
Continuous
 62
     1
100
AcDbText
 10
647.063690167
 20
332.5
 30
0.0
 40
6.0
  1
○
 50
270.0
 41
1.0
  7
KANJI3
100
AcDbText
  0
LINE
  5
6D3
330
1F
100
AcDbEntity
  8
0
  6
Continuous
 62
     1
100
AcDbLine
 10
679.563690167
 20
409.5
 30
0.0
 11
678.063690167
 21
409.5
 31
0.0
  0
LINE
  5
6D4
330
1F
100
AcDbEntity
  8
0
  6
Continuous
 62
     1
100
AcDbLine
 10
678.063690167
 20
409.5
 30
0.0
 11
678.063690167
 21
379.5
 31
0.0
  0
LINE
  5
6D5
330
1F
100
AcDbEntity
  8
0
  6
Continuous
 62
     1
100
AcDbLine
 10
678.063690167
 20
379.5
 30
0.0
 11
679.563690167
 21
379.5
 31
0.0
  0
TEXT
  5
6D6
330
1F
100
AcDbEntity
  8
0
  6
Continuous
 62
     1
100
AcDbText
 10
647.563690167
 20
360.7
 30
0.0
 40
3.0
  1
＋
 50
270.0
 41
1.0
  7
KANJI4
100
AcDbText
  0
TEXT
  5
6D8
330
1F
100
AcDbEntity
  8
0
  6
Continuous
 62
     1
100
AcDbText
 10
647.563690167
 20
353.08
 30
0.0
 40
3.0
  1
－
 50
270.0
 41
1.0
  7
KANJI4
100
AcDbText
  0
LINE
  5
6D9
330
1F
100
AcDbEntity
  8
0
  6
Continuous
 62
     1
100
AcDbLine
 10
650.563690167
 20
359.2
 30
0.0
 11
652.063690167
 21
359.2
 31
0.0
  0
LINE
  5
6DA
330
1F
100
AcDbEntity
  8
0
  6
Continuous
 62
     1
100
AcDbLine
 10
652.063690167
 20
359.2
 30
0.0
 11
652.063690167
 21
351.58
 31
0.0
  0
LINE
  5
6DB
330
1F
100
AcDbEntity
  8
0
  6
Continuous
 62
     1
100
AcDbLine
 10
650.563690167
 20
351.58
 30
0.0
 11
652.063690167
 21
351.58
 31
0.0
  0
TEXT
  5
6DC
330
1F
100
AcDbEntity
  8
0
  6
Continuous
 62
     1
100
AcDbText
 10
652.063690167
 20
359.89
 30
0.0
 40
3.0
  1
ＰＥＭＯＴＥ
 50
270.0
 41
0.5
  7
KANJI5
100
AcDbText
  0
LINE
  5
6DE
330
1F
100
AcDbEntity
  8
0
  6
Continuous
 62
     1
100
AcDbLine
 10
653.063690167
 20
299.5
 30
0.0
 11
654.563690167
 21
299.5
 31
0.0
  0
LINE
  5
6DF
330
1F
100
AcDbEntity
  8
0
  6
Continuous
 62
     1
100
AcDbLine
 10
654.563690167
 20
299.5
 30
0.0
 11
654.563690167
 21
329.5
 31
0.0
  0
LINE
  5
6E0
330
1F
100
AcDbEntity
  8
0
  6
Continuous
 62
     1
100
AcDbLine
 10
654.563690167
 20
329.5
 30
0.0
 11
653.063690167
 21
329.5
 31
0.0
  0
TEXT
  5
6E1
330
1F
100
AcDbEntity
  8
0
  6
Continuous
 62
     1
100
AcDbText
 10
675.063690167
 20
442.0
 30
0.0
 40
3.0
  1
ＡＣ　　　　　ＯＵＴ
 50
270.0
 41
0.5
  7
KANJI5
100
AcDbText
  0
TEXT
  5
6E2
330
1F
100
AcDbEntity
  8
0
  6
Continuous
 62
     1
100
AcDbText
 10
654.563690167
 20
320.5
 30
0.0
 40
3.0
  1
ＤＣ　　　　ＩＮ
 50
270.0
 41
0.5
  7
KANJI5
100
AcDbText
  0
LWPOLYLINE
  5
6E4
330
1F
100
AcDbEntity
  8
0
  6
Continuous
 62
     1
100
AcDbPolyline
 90
     4
 70
   129
 43
0.0
 10
620.563690167
 20
335.0
 10
620.563690167
 20
295.0
 10
630.563690167
 20
295.0
 10
630.563690167
 20
335.0
  0
TEXT
  5
6E5
330
1F
100
AcDbEntity
  8
0
  6
Continuous
 62
     1
100
AcDbText
 10
624.063690167
 20
322.5
 30
0.0
 40
3.0
  1
ＳＥＲＩＡＬ　Ｎｏ，
 50
270.0
 41
0.5
  7
KANJI5
100
AcDbText
  0
LWPOLYLINE
  5
6E7
330
1F
100
AcDbEntity
  8
0
  6
Continuous
 62
     1
100
AcDbPolyline
 90
     4
 70
   129
 43
0.0
 10
692.563690167
 20
354.611111111
 10
692.563690167
 20
353.222222222
 10
695.563690167
 20
353.222222222
 10
695.563690167
 20
354.611111111
  0
LWPOLYLINE
  5
6E9
330
1F
100
AcDbEntity
  8
0
  6
Continuous
 62
     1
100
AcDbPolyline
 90
     4
 70
   129
 43
0.0
 10
692.563690167
 20
351.833333333
 10
692.563690167
 20
350.444444444
 10
695.563690167
 20
350.444444444
 10
695.563690167
 20
351.833333333
  0
LWPOLYLINE
  5
6EB
330
1F
100
AcDbEntity
  8
0
  6
Continuous
 62
     1
100
AcDbPolyline
 90
     4
 70
   129
 43
0.0
 10
692.563690167
 20
349.055555556
 10
692.563690167
 20
347.666666667
 10
695.563690167
 20
347.666666667
 10
695.563690167
 20
349.055555556
  0
LWPOLYLINE
  5
6ED
330
1F
100
AcDbEntity
  8
0
  6
Continuous
 62
     1
100
AcDbPolyline
 90
     4
 70
   129
 43
0.0
 10
692.563690167
 20
346.277777778
 10
692.563690167
 20
344.888888889
 10
695.563690167
 20
344.888888889
 10
695.563690167
 20
346.277777778
  0
LWPOLYLINE
  5
6EF
330
1F
100
AcDbEntity
  8
0
  6
Continuous
 62
     1
100
AcDbPolyline
 90
     4
 70
   129
 43
0.0
 10
691.563690167
 20
356.0
 10
691.563690167
 20
343.5
 10
697.563690167
 20
343.5
 10
697.563690167
 20
356.0
  0
LWPOLYLINE
  5
6F1
330
1F
100
AcDbEntity
  8
0
  6
Continuous
 62
     1
100
AcDbPolyline
 90
     4
 70
   129
 43
0.0
 10
691.563690167
 20
363.0
 10
691.563690167
 20
356.0
 10
698.563690167
 20
356.0
 10
698.563690167
 20
363.0
  0
CIRCLE
  5
6F2
330
1F
100
AcDbEntity
  8
0
  6
Continuous
 62
     1
100
AcDbCircle
 10
695.063690167
 20
359.5
 30
0.0
 40
1.6
  0
LINE
  5
6F3
330
1F
100
AcDbEntity
  8
0
  6
Continuous
 62
     1
100
AcDbLine
 10
696.195061017
 20
358.36862915
 30
0.0
 11
693.932319318
 21
360.63137085
 31
0.0
  0
TEXT
  5
6F4
330
1F
100
AcDbEntity
  8
0
  6
Continuous
 62
     1
100
AcDbText
 10
680.563690167
 20
362.0
 30
0.0
 40
2.0
  1
Ｖ．ＡＤＪ
 50
270.0
 41
0.5
  7
KANJI6
100
AcDbText
  0
TEXT
  5
6F6
330
1F
100
AcDbEntity
  8
0
  6
Continuous
 62
     1
100
AcDbText
 10
680.563690167
 20
353.25
 30
0.0
 40
2.0
  1
ＦＲＱ．ＳＥＴ
 50
270.0
 41
0.5
  7
KANJI6
100
AcDbText
  0
TEXT
  5
6F7
330
1F
100
AcDbEntity
  8
0
  6
Continuous
 62
     1
100
AcDbText
 10
660.193690167
 20
358.33
 30
0.0
 40
1.6
  1
ＭＩＡＤＥ　ＩＮ　ＪＡＰＡＮ
 50
270.0
 41
0.4375
  7
KANJI7
100
AcDbText
  0
TEXT
  5
6F9
330
1F
100
AcDbEntity
  8
0
  6
Continuous
 62
     1
100
AcDbText
 10
662.193690167
 20
364.92
 30
0.0
 40
2.0
  1
ＡＬＰＨＡ　ＳＹＳＴＥＭ　ＩＮＣ．
 50
270.0
 41
0.5
  7
KANJI8
100
AcDbText
  0
TEXT
  5
6FB
330
1F
100
AcDbEntity
  8
0
  6
Continuous
 62
     1
100
AcDbText
 10
663.563690167
 20
409.5
 30
0.0
 40
2.0
  1
ＤＣ－ＡＣ　ＩＮＶＥＲＴＥＲ
 50
270.0
 41
0.5
  7
KANJI6
100
AcDbText
  0
TEXT
  5
6FC
330
1F
100
AcDbEntity
  8
0
  6
Continuous
 62
     1
100
AcDbText
 10
665.563690167
 20
418.6
 30
0.0
 40
2.0
  1
Ｍｏｄｅｌ
 50
270.0
 41
0.5
  7
KANJI6
100
AcDbText
  0
LWPOLYLINE
  5
6FE
330
1F
100
AcDbEntity
  8
0
  6
Continuous
 62
     1
100
AcDbPolyline
 90
     4
 70
   129
 43
0.0
 10
665.563690167
 20
409.5
 10
665.563690167
 20
385.63
 10
670.273690167
 20
385.63
 10
670.273690167
 20
409.5
  0
LINE
  5
6FF
330
1F
100
AcDbEntity
  8
0
  6
Continuous
 62
     2
100
AcDbLine
 10
185.363690167
 20
272.0
 30
0.0
 11
95.363690167
 21
272.0
 31
0.0
  0
LWPOLYLINE
  5
701
330
1F
100
AcDbEntity
  8
0
  6
Continuous
 62
     2
100
AcDbPolyline
 90
     4
 70
   128
 43
0.0
 10
95.363690167
 20
272.0
 10
95.363690167
 20
469.0
 10
185.363690167
 20
469.0
 10
185.363690167
 20
272.0
  0
LINE
  5
702
330
1F
100
AcDbEntity
  8
0
  6
Continuous
 62
     2
100
AcDbLine
 10
95.363690167
 20
272.0
 30
0.0
 11
95.363690167
 21
270.0
 31
0.0
  0
LINE
  5
703
330
1F
100
AcDbEntity
  8
0
  6
Continuous
 62
     2
100
AcDbLine
 10
95.363690167
 20
270.0
 30
0.0
 11
187.363690167
 21
270.0
 31
0.0
  0
LINE
  5
704
330
1F
100
AcDbEntity
  8
0
  6
Continuous
 62
     2
100
AcDbLine
 10
187.363690167
 20
270.0
 30
0.0
 11
187.363690167
 21
469.0
 31
0.0
  0
LINE
  5
705
330
1F
100
AcDbEntity
  8
0
  6
Continuous
 62
     2
100
AcDbLine
 10
187.363690167
 20
469.0
 30
0.0
 11
185.363690167
 21
469.0
 31
0.0
  0
LINE
  5
706
330
1F
100
AcDbEntity
  8
0
  6
Continuous
 62
     2
100
AcDbLine
 10
185.363690167
 20
469.0
 30
0.0
 11
185.363690167
 21
470.0
 31
0.0
  0
LINE
  5
707
330
1F
100
AcDbEntity
  8
0
  6
Continuous
 62
     2
100
AcDbLine
 10
185.363690167
 20
470.0
 30
0.0
 11
94.363690167
 21
470.0
 31
0.0
  0
LINE
  5
708
330
1F
100
AcDbEntity
  8
0
  6
Continuous
 62
     2
100
AcDbLine
 10
94.363690167
 20
470.0
 30
0.0
 11
94.363690167
 21
272.0
 31
0.0
  0
LINE
  5
709
330
1F
100
AcDbEntity
  8
0
  6
Continuous
 62
     2
100
AcDbLine
 10
94.363690167
 20
272.0
 30
0.0
 11
95.363690167
 21
272.0
 31
0.0
  0
LINE
  5
70A
330
1F
100
AcDbEntity
  8
0
  6
Continuous
 62
     1
100
AcDbLine
 10
107.133661597
 20
377.890028571
 30
0.0
 11
135.74908303
 21
406.505450004
 31
0.0
  0
LINE
  5
70B
330
1F
100
AcDbEntity
  8
0
  6
Continuous
 62
     1
100
AcDbLine
 10
107.133661597
 20
442.121228571
 30
0.0
 11
135.74908303
 21
413.505807138
 31
0.0
  0
ARC
  5
70C
330
1F
100
AcDbEntity
  8
0
  6
Continuous
 62
     1
100
AcDbCircle
 10
132.248904463
 20
410.005628571
 30
0.0
 40
4.95
100
AcDbArc
 50
315.0
 51
45.0
  0
LINE
  5
70D
330
1F
100
AcDbEntity
  8
0
  6
Continuous
 62
     1
100
AcDbLine
 10
108.253718738
 20
376.769971429
 30
0.0
 11
136.84798303
 21
405.364235721
 31
0.0
  0
LINE
  5
70E
330
1F
100
AcDbEntity
  8
0
  6
Continuous
 62
     1
100
AcDbLine
 10
108.253718738
 20
443.198971429
 30
0.0
 11
136.84798303
 21
414.604707138
 31
0.0
  0
ARC
  5
70F
330
1F
100
AcDbEntity
  8
0
  6
Continuous
 62
     1
100
AcDbCircle
 10
132.227747322
 20
409.984471429
 30
0.0
 40
6.534
100
AcDbArc
 50
315.0
 51
45.0
  0
LINE
  5
710
330
1F
100
AcDbEntity
  8
0
  6
Continuous
 62
     1
100
AcDbLine
 10
173.593718738
 20
377.890028571
 30
0.0
 11
144.978297305
 21
406.505450004
 31
0.0
  0
LINE
  5
711
330
1F
100
AcDbEntity
  8
0
  6
Continuous
 62
     1
100
AcDbLine
 10
173.593718738
 20
442.121228571
 30
0.0
 11
144.978297305
 21
413.505807138
 31
0.0
  0
ARC
  5
712
330
1F
100
AcDbEntity
  8
0
  6
Continuous
 62
     1
100
AcDbCircle
 10
148.478475872
 20
410.005628571
 30
0.0
 40
4.95
100
AcDbArc
 50
135.0
 51
225.0
  0
LINE
  5
713
330
1F
100
AcDbEntity
  8
0
  6
Continuous
 62
     1
100
AcDbLine
 10
172.473661597
 20
376.769971429
 30
0.0
 11
143.879397305
 21
405.364235721
 31
0.0
  0
LINE
  5
714
330
1F
100
AcDbEntity
  8
0
  6
Continuous
 62
     1
100
AcDbLine
 10
172.473661597
 20
443.198971429
 30
0.0
 11
143.879397305
 21
414.604707138
 31
0.0
  0
ARC
  5
715
330
1F
100
AcDbEntity
  8
0
  6
Continuous
 62
     1
100
AcDbCircle
 10
148.499633013
 20
409.984471429
 30
0.0
 40
6.534
100
AcDbArc
 50
135.0
 51
225.0
  0
ARC
  5
716
330
1F
100
AcDbEntity
  8
0
  6
Continuous
 62
     1
100
AcDbCircle
 10
140.363690167
 20
410.0
 30
0.0
 40
6.435
100
AcDbArc
 50
52.217114651
 51
128.446031902
  0
ARC
  5
717
330
1F
100
AcDbEntity
  8
0
  6
Continuous
 62
     1
100
AcDbCircle
 10
140.363690167
 20
410.0
 30
0.0
 40
8.019
100
AcDbArc
 50
50.515626714
 51
129.73931091
  0
ARC
  5
718
330
1F
100
AcDbEntity
  8
0
  6
Continuous
 62
     1
100
AcDbCircle
 10
140.363690167
 20
410.0
 30
0.0
 40
13.86
100
AcDbArc
 50
48.268595777
 51
131.753614212
  0
ARC
  5
719
330
1F
100
AcDbEntity
  8
0
  6
Continuous
 62
     1
100
AcDbCircle
 10
140.363690167
 20
410.0
 30
0.0
 40
15.444
100
AcDbArc
 50
47.920805087
 51
131.930422495
  0
ARC
  5
71A
330
1F
100
AcDbEntity
  8
0
  6
Continuous
 62
     1
100
AcDbCircle
 10
140.363690167
 20
410.0
 30
0.0
 40
21.285
100
AcDbArc
 50
47.206847275
 51
132.864444499
  0
ARC
  5
71B
330
1F
100
AcDbEntity
  8
0
  6
Continuous
 62
     1
100
AcDbCircle
 10
140.363690167
 20
410.0
 30
0.0
 40
22.869
100
AcDbArc
 50
47.08661884
 51
132.995429379
  0
ARC
  5
71C
330
1F
100
AcDbEntity
  8
0
  6
Continuous
 62
     1
100
AcDbCircle
 10
140.363690167
 20
410.0
 30
0.0
 40
28.71
100
AcDbArc
 50
46.745372425
 51
133.517471396
  0
ARC
  5
71D
330
1F
100
AcDbEntity
  8
0
  6
Continuous
 62
     1
100
AcDbCircle
 10
140.363690167
 20
410.0
 30
0.0
 40
30.294
100
AcDbArc
 50
46.54846621
 51
133.514787847
  0
ARC
  5
71E
330
1F
100
AcDbEntity
  8
0
  6
Continuous
 62
     1
100
AcDbCircle
 10
140.363690167
 20
410.0
 30
0.0
 40
36.135
100
AcDbArc
 50
46.221440883
 51
133.744432426
  0
ARC
  5
71F
330
1F
100
AcDbEntity
  8
0
  6
Continuous
 62
     1
100
AcDbCircle
 10
140.363690167
 20
410.0
 30
0.0
 40
37.719
100
AcDbArc
 50
46.16932648
 51
133.733307347
  0
ARC
  5
720
330
1F
100
AcDbEntity
  8
0
  6
Continuous
 62
     1
100
AcDbCircle
 10
140.363690167
 20
410.0
 30
0.0
 40
37.719
100
AcDbArc
 50
316.299301743
 51
43.755591995
  0
ARC
  5
721
330
1F
100
AcDbEntity
  8
0
  6
Continuous
 62
     1
100
AcDbCircle
 10
140.363690167
 20
410.0
 30
0.0
 40
36.135
100
AcDbArc
 50
316.345360232
 51
43.679424768
  0
ARC
  5
722
330
1F
100
AcDbEntity
  8
0
  6
Continuous
 62
     1
100
AcDbCircle
 10
140.363690167
 20
410.0
 30
0.0
 40
30.294
100
AcDbArc
 50
316.605466709
 51
43.517334966
  0
ARC
  5
723
330
1F
100
AcDbEntity
  8
0
  6
Continuous
 62
     1
100
AcDbCircle
 10
140.363690167
 20
410.0
 30
0.0
 40
28.71
100
AcDbArc
 50
316.666860354
 51
43.395744578
  0
ARC
  5
724
330
1F
100
AcDbEntity
  8
0
  6
Continuous
 62
     1
100
AcDbCircle
 10
140.363690167
 20
410.0
 30
0.0
 40
22.869
100
AcDbArc
 50
317.180036314
 51
43.072837375
  0
ARC
  5
725
330
1F
100
AcDbEntity
  8
0
  6
Continuous
 62
     1
100
AcDbCircle
 10
140.363690167
 20
410.0
 30
0.0
 40
21.285
100
AcDbArc
 50
317.456885939
 51
42.906220935
  0
ARC
  5
726
330
1F
100
AcDbEntity
  8
0
  6
Continuous
 62
     1
100
AcDbCircle
 10
140.363690167
 20
410.0
 30
0.0
 40
15.444
100
AcDbArc
 50
317.993127597
 51
42.032528087
  0
ARC
  5
727
330
1F
100
AcDbEntity
  8
0
  6
Continuous
 62
     1
100
AcDbCircle
 10
140.363690167
 20
410.0
 30
0.0
 40
13.86
100
AcDbArc
 50
318.310842793
 51
41.349874116
  0
ARC
  5
728
330
1F
100
AcDbEntity
  8
0
  6
Continuous
 62
     1
100
AcDbCircle
 10
140.363690167
 20
410.0
 30
0.0
 40
8.019
100
AcDbArc
 50
320.807650731
 51
39.110080587
  0
ARC
  5
729
330
1F
100
AcDbEntity
  8
0
  6
Continuous
 62
     1
100
AcDbCircle
 10
140.363690167
 20
410.0
 30
0.0
 40
6.435
100
AcDbArc
 50
322.280867829
 51
37.837184056
  0
ARC
  5
72A
330
1F
100
AcDbEntity
  8
0
  6
Continuous
 62
     1
100
AcDbCircle
 10
140.363690167
 20
410.0
 30
0.0
 40
6.435
100
AcDbArc
 50
232.4460881
 51
307.509404011
  0
ARC
  5
72B
330
1F
100
AcDbEntity
  8
0
  6
Continuous
 62
     1
100
AcDbCircle
 10
140.363690167
 20
410.0
 30
0.0
 40
6.435
100
AcDbArc
 50
142.387876912
 51
217.866180649
  0
ARC
  5
72C
330
1F
100
AcDbEntity
  8
0
  6
Continuous
 62
     1
100
AcDbCircle
 10
140.363690167
 20
410.0
 30
0.0
 40
8.019
100
AcDbArc
 50
231.067849199
 51
309.095546357
  0
ARC
  5
72D
330
1F
100
AcDbEntity
  8
0
  6
Continuous
 62
     1
100
AcDbCircle
 10
140.363690167
 20
410.0
 30
0.0
 40
8.019
100
AcDbArc
 50
140.783766261
 51
218.98503838
  0
ARC
  5
72E
330
1F
100
AcDbEntity
  8
0
  6
Continuous
 62
     1
100
AcDbCircle
 10
140.363690167
 20
410.0
 30
0.0
 40
13.86
100
AcDbArc
 50
228.057357507
 51
311.639208921
  0
ARC
  5
72F
330
1F
100
AcDbEntity
  8
0
  6
Continuous
 62
     1
100
AcDbCircle
 10
140.363690167
 20
410.0
 30
0.0
 40
13.86
100
AcDbArc
 50
138.010344229
 51
221.546444254
  0
ARC
  5
730
330
1F
100
AcDbEntity
  8
0
  6
Continuous
 62
     1
100
AcDbCircle
 10
140.363690167
 20
410.0
 30
0.0
 40
15.444
100
AcDbArc
 50
228.151150975
 51
312.093157988
  0
ARC
  5
731
330
1F
100
AcDbEntity
  8
0
  6
Continuous
 62
     1
100
AcDbCircle
 10
140.363690167
 20
410.0
 30
0.0
 40
15.444
100
AcDbArc
 50
137.871790509
 51
222.09205666
  0
ARC
  5
732
330
1F
100
AcDbEntity
  8
0
  6
Continuous
 62
     1
100
AcDbCircle
 10
140.363690167
 20
410.0
 30
0.0
 40
21.285
100
AcDbArc
 50
227.135880041
 51
312.871017032
  0
ARC
  5
733
330
1F
100
AcDbEntity
  8
0
  6
Continuous
 62
     1
100
AcDbCircle
 10
140.363690167
 20
410.0
 30
0.0
 40
21.285
100
AcDbArc
 50
137.108055479
 51
222.69646085
  0
ARC
  5
734
330
1F
100
AcDbEntity
  8
0
  6
Continuous
 62
     1
100
AcDbCircle
 10
140.363690167
 20
410.0
 30
0.0
 40
22.869
100
AcDbArc
 50
227.211457574
 51
313.000240667
  0
ARC
  5
735
330
1F
100
AcDbEntity
  8
0
  6
Continuous
 62
     1
100
AcDbCircle
 10
140.363690167
 20
410.0
 30
0.0
 40
22.869
100
AcDbArc
 50
137.01545514
 51
222.908086364
  0
ARC
  5
736
330
1F
100
AcDbEntity
  8
0
  6
Continuous
 62
     1
100
AcDbCircle
 10
140.363690167
 20
410.0
 30
0.0
 40
28.71
100
AcDbArc
 50
226.692140021
 51
313.406503218
  0
ARC
  5
737
330
1F
100
AcDbEntity
  8
0
  6
Continuous
 62
     1
100
AcDbCircle
 10
140.363690167
 20
410.0
 30
0.0
 40
28.71
100
AcDbArc
 50
136.561707433
 51
223.378140715
  0
ARC
  5
738
330
1F
100
AcDbEntity
  8
0
  6
Continuous
 62
     1
100
AcDbCircle
 10
140.363690167
 20
410.0
 30
0.0
 40
30.294
100
AcDbArc
 50
226.628688365
 51
313.476942119
  0
ARC
  5
739
330
1F
100
AcDbEntity
  8
0
  6
Continuous
 62
     1
100
AcDbCircle
 10
140.363690167
 20
410.0
 30
0.0
 40
30.294
100
AcDbArc
 50
136.531704252
 51
223.423521464
  0
ARC
  5
73A
330
1F
100
AcDbEntity
  8
0
  6
Continuous
 62
     1
100
AcDbCircle
 10
140.363690167
 20
410.0
 30
0.0
 40
36.135
100
AcDbArc
 50
226.266891953
 51
313.779575462
  0
ARC
  5
73B
330
1F
100
AcDbEntity
  8
0
  6
Continuous
 62
     1
100
AcDbCircle
 10
140.363690167
 20
410.0
 30
0.0
 40
36.135
100
AcDbArc
 50
136.219478942
 51
223.610101308
  0
ARC
  5
73C
330
1F
100
AcDbEntity
  8
0
  6
Continuous
 62
     1
100
AcDbCircle
 10
140.363690167
 20
410.0
 30
0.0
 40
37.719
100
AcDbArc
 50
226.319146166
 51
313.798211835
  0
ARC
  5
73D
330
1F
100
AcDbEntity
  8
0
  6
Continuous
 62
     1
100
AcDbCircle
 10
140.363690167
 20
410.0
 30
0.0
 40
37.719
100
AcDbArc
 50
136.136227054
 51
223.71156184
  0
CIRCLE
  5
73E
330
1F
100
AcDbEntity
  8
0
  6
Continuous
 62
     1
100
AcDbCircle
 10
175.805690167
 20
445.442
 30
0.0
 40
3.96
  0
CIRCLE
  5
73F
330
1F
100
AcDbEntity
  8
0
  6
Continuous
 62
     1
100
AcDbCircle
 10
175.805690167
 20
445.442
 30
0.0
 40
2.97
  0
LINE
  5
740
330
1F
100
AcDbEntity
  8
0
  6
Continuous
 62
     1
100
AcDbLine
 10
177.092690167
 20
446.729
 30
0.0
 11
174.518690167
 21
444.155
 31
0.0
  0
LINE
  5
741
330
1F
100
AcDbEntity
  8
0
  6
Continuous
 62
     1
100
AcDbLine
 10
174.518690167
 20
446.729
 30
0.0
 11
177.092690167
 21
444.155
 31
0.0
  0
CIRCLE
  5
742
330
1F
100
AcDbEntity
  8
0
  6
Continuous
 62
     1
100
AcDbCircle
 10
175.805690167
 20
374.558
 30
0.0
 40
3.96
  0
CIRCLE
  5
743
330
1F
100
AcDbEntity
  8
0
  6
Continuous
 62
     1
100
AcDbCircle
 10
175.805690167
 20
374.558
 30
0.0
 40
2.97
  0
LINE
  5
744
330
1F
100
AcDbEntity
  8
0
  6
Continuous
 62
     1
100
AcDbLine
 10
177.092690167
 20
375.845
 30
0.0
 11
174.518690167
 21
373.271
 31
0.0
  0
LINE
  5
745
330
1F
100
AcDbEntity
  8
0
  6
Continuous
 62
     1
100
AcDbLine
 10
174.518690167
 20
375.845
 30
0.0
 11
177.092690167
 21
373.271
 31
0.0
  0
CIRCLE
  5
746
330
1F
100
AcDbEntity
  8
0
  6
Continuous
 62
     1
100
AcDbCircle
 10
104.921690167
 20
374.558
 30
0.0
 40
3.96
  0
CIRCLE
  5
747
330
1F
100
AcDbEntity
  8
0
  6
Continuous
 62
     1
100
AcDbCircle
 10
104.921690167
 20
374.558
 30
0.0
 40
2.97
  0
LINE
  5
748
330
1F
100
AcDbEntity
  8
0
  6
Continuous
 62
     1
100
AcDbLine
 10
106.208690167
 20
375.845
 30
0.0
 11
103.634690167
 21
373.271
 31
0.0
  0
LINE
  5
749
330
1F
100
AcDbEntity
  8
0
  6
Continuous
 62
     1
100
AcDbLine
 10
103.634690167
 20
375.845
 30
0.0
 11
106.208690167
 21
373.271
 31
0.0
  0
CIRCLE
  5
74A
330
1F
100
AcDbEntity
  8
0
  6
Continuous
 62
     1
100
AcDbCircle
 10
104.921690167
 20
445.442
 30
0.0
 40
3.96
  0
CIRCLE
  5
74B
330
1F
100
AcDbEntity
  8
0
  6
Continuous
 62
     1
100
AcDbCircle
 10
104.921690167
 20
445.442
 30
0.0
 40
2.97
  0
LINE
  5
74C
330
1F
100
AcDbEntity
  8
0
  6
Continuous
 62
     1
100
AcDbLine
 10
106.208690167
 20
446.729
 30
0.0
 11
103.634690167
 21
444.155
 31
0.0
  0
LINE
  5
74D
330
1F
100
AcDbEntity
  8
0
  6
Continuous
 62
     1
100
AcDbLine
 10
103.634690167
 20
446.729
 30
0.0
 11
106.208690167
 21
444.155
 31
0.0
  0
LINE
  5
74E
330
1F
100
AcDbEntity
  8
0
  6
Continuous
 62
     1
100
AcDbLine
 10
107.133661597
 20
362.109971429
 30
0.0
 11
135.74908303
 21
333.494549996
 31
0.0
  0
LINE
  5
74F
330
1F
100
AcDbEntity
  8
0
  6
Continuous
 62
     1
100
AcDbLine
 10
107.133661597
 20
297.878771429
 30
0.0
 11
135.74908303
 21
326.494192862
 31
0.0
  0
ARC
  5
750
330
1F
100
AcDbEntity
  8
0
  6
Continuous
 62
     1
100
AcDbCircle
 10
132.248904463
 20
329.994371429
 30
0.0
 40
4.95
100
AcDbArc
 50
315.0
 51
45.0
  0
LINE
  5
751
330
1F
100
AcDbEntity
  8
0
  6
Continuous
 62
     1
100
AcDbLine
 10
108.253718738
 20
363.230028571
 30
0.0
 11
136.84798303
 21
334.635764279
 31
0.0
  0
LINE
  5
752
330
1F
100
AcDbEntity
  8
0
  6
Continuous
 62
     1
100
AcDbLine
 10
108.253718738
 20
296.801028571
 30
0.0
 11
136.84798303
 21
325.395292862
 31
0.0
  0
ARC
  5
753
330
1F
100
AcDbEntity
  8
0
  6
Continuous
 62
     1
100
AcDbCircle
 10
132.227747322
 20
330.015528571
 30
0.0
 40
6.534
100
AcDbArc
 50
315.0
 51
45.0
  0
LINE
  5
754
330
1F
100
AcDbEntity
  8
0
  6
Continuous
 62
     1
100
AcDbLine
 10
173.593718738
 20
362.109971429
 30
0.0
 11
144.978297305
 21
333.494549996
 31
0.0
  0
LINE
  5
755
330
1F
100
AcDbEntity
  8
0
  6
Continuous
 62
     1
100
AcDbLine
 10
173.593718738
 20
297.878771429
 30
0.0
 11
144.978297305
 21
326.494192862
 31
0.0
  0
ARC
  5
756
330
1F
100
AcDbEntity
  8
0
  6
Continuous
 62
     1
100
AcDbCircle
 10
148.478475872
 20
329.994371429
 30
0.0
 40
4.95
100
AcDbArc
 50
135.0
 51
225.0
  0
LINE
  5
757
330
1F
100
AcDbEntity
  8
0
  6
Continuous
 62
     1
100
AcDbLine
 10
172.473661597
 20
363.230028571
 30
0.0
 11
143.879397305
 21
334.635764279
 31
0.0
  0
LINE
  5
758
330
1F
100
AcDbEntity
  8
0
  6
Continuous
 62
     1
100
AcDbLine
 10
172.473661597
 20
296.801028571
 30
0.0
 11
143.879397305
 21
325.395292862
 31
0.0
  0
ARC
  5
759
330
1F
100
AcDbEntity
  8
0
  6
Continuous
 62
     1
100
AcDbCircle
 10
148.499633013
 20
330.015528571
 30
0.0
 40
6.534
100
AcDbArc
 50
135.0
 51
225.0
  0
ARC
  5
75A
330
1F
100
AcDbEntity
  8
0
  6
Continuous
 62
     1
100
AcDbCircle
 10
140.363690167
 20
330.0
 30
0.0
 40
6.435
100
AcDbArc
 50
231.553968098
 51
307.782885349
  0
ARC
  5
75B
330
1F
100
AcDbEntity
  8
0
  6
Continuous
 62
     1
100
AcDbCircle
 10
140.363690167
 20
330.0
 30
0.0
 40
8.019
100
AcDbArc
 50
230.26068909
 51
309.484373286
  0
ARC
  5
75C
330
1F
100
AcDbEntity
  8
0
  6
Continuous
 62
     1
100
AcDbCircle
 10
140.363690167
 20
330.0
 30
0.0
 40
13.86
100
AcDbArc
 50
228.246385788
 51
311.731404223
  0
ARC
  5
75D
330
1F
100
AcDbEntity
  8
0
  6
Continuous
 62
     1
100
AcDbCircle
 10
140.363690167
 20
330.0
 30
0.0
 40
15.444
100
AcDbArc
 50
228.069577505
 51
312.079194913
  0
ARC
  5
75E
330
1F
100
AcDbEntity
  8
0
  6
Continuous
 62
     1
100
AcDbCircle
 10
140.363690167
 20
330.0
 30
0.0
 40
21.285
100
AcDbArc
 50
227.135555501
 51
312.793152725
  0
ARC
  5
75F
330
1F
100
AcDbEntity
  8
0
  6
Continuous
 62
     1
100
AcDbCircle
 10
140.363690167
 20
330.0
 30
0.0
 40
22.869
100
AcDbArc
 50
227.004570621
 51
312.91338116
  0
ARC
  5
760
330
1F
100
AcDbEntity
  8
0
  6
Continuous
 62
     1
100
AcDbCircle
 10
140.363690167
 20
330.0
 30
0.0
 40
28.71
100
AcDbArc
 50
226.482528604
 51
313.254627575
  0
ARC
  5
761
330
1F
100
AcDbEntity
  8
0
  6
Continuous
 62
     1
100
AcDbCircle
 10
140.363690167
 20
330.0
 30
0.0
 40
30.294
100
AcDbArc
 50
226.485212153
 51
313.45153379
  0
ARC
  5
762
330
1F
100
AcDbEntity
  8
0
  6
Continuous
 62
     1
100
AcDbCircle
 10
140.363690167
 20
330.0
 30
0.0
 40
36.135
100
AcDbArc
 50
226.255567574
 51
313.778559117
  0
ARC
  5
763
330
1F
100
AcDbEntity
  8
0
  6
Continuous
 62
     1
100
AcDbCircle
 10
140.363690167
 20
330.0
 30
0.0
 40
37.719
100
AcDbArc
 50
226.266692653
 51
313.83067352
  0
ARC
  5
764
330
1F
100
AcDbEntity
  8
0
  6
Continuous
 62
     1
100
AcDbCircle
 10
140.363690167
 20
330.0
 30
0.0
 40
37.719
100
AcDbArc
 50
316.244408005
 51
43.700698257
  0
ARC
  5
765
330
1F
100
AcDbEntity
  8
0
  6
Continuous
 62
     1
100
AcDbCircle
 10
140.363690167
 20
330.0
 30
0.0
 40
36.135
100
AcDbArc
 50
316.320575232
 51
43.654639768
  0
ARC
  5
766
330
1F
100
AcDbEntity
  8
0
  6
Continuous
 62
     1
100
AcDbCircle
 10
140.363690167
 20
330.0
 30
0.0
 40
30.294
100
AcDbArc
 50
316.482665034
 51
43.394533291
  0
ARC
  5
767
330
1F
100
AcDbEntity
  8
0
  6
Continuous
 62
     1
100
AcDbCircle
 10
140.363690167
 20
330.0
 30
0.0
 40
28.71
100
AcDbArc
 50
316.604255422
 51
43.333139646
  0
ARC
  5
768
330
1F
100
AcDbEntity
  8
0
  6
Continuous
 62
     1
100
AcDbCircle
 10
140.363690167
 20
330.0
 30
0.0
 40
22.869
100
AcDbArc
 50
316.927162625
 51
42.819963686
  0
ARC
  5
769
330
1F
100
AcDbEntity
  8
0
  6
Continuous
 62
     1
100
AcDbCircle
 10
140.363690167
 20
330.0
 30
0.0
 40
21.285
100
AcDbArc
 50
317.093779065
 51
42.543114061
  0
ARC
  5
76A
330
1F
100
AcDbEntity
  8
0
  6
Continuous
 62
     1
100
AcDbCircle
 10
140.363690167
 20
330.0
 30
0.0
 40
15.444
100
AcDbArc
 50
317.967471913
 51
42.006872403
  0
ARC
  5
76B
330
1F
100
AcDbEntity
  8
0
  6
Continuous
 62
     1
100
AcDbCircle
 10
140.363690167
 20
330.0
 30
0.0
 40
13.86
100
AcDbArc
 50
318.650125884
 51
41.689157207
  0
ARC
  5
76C
330
1F
100
AcDbEntity
  8
0
  6
Continuous
 62
     1
100
AcDbCircle
 10
140.363690167
 20
330.0
 30
0.0
 40
8.019
100
AcDbArc
 50
320.889919413
 51
39.192349269
  0
ARC
  5
76D
330
1F
100
AcDbEntity
  8
0
  6
Continuous
 62
     1
100
AcDbCircle
 10
140.363690167
 20
330.0
 30
0.0
 40
6.435
100
AcDbArc
 50
322.162815944
 51
37.719132171
  0
ARC
  5
76E
330
1F
100
AcDbEntity
  8
0
  6
Continuous
 62
     1
100
AcDbCircle
 10
140.363690167
 20
330.0
 30
0.0
 40
6.435
100
AcDbArc
 50
52.490595989
 51
127.5539119
  0
ARC
  5
76F
330
1F
100
AcDbEntity
  8
0
  6
Continuous
 62
     1
100
AcDbCircle
 10
140.363690167
 20
330.0
 30
0.0
 40
6.435
100
AcDbArc
 50
142.133819351
 51
217.612123088
  0
ARC
  5
770
330
1F
100
AcDbEntity
  8
0
  6
Continuous
 62
     1
100
AcDbCircle
 10
140.363690167
 20
330.0
 30
0.0
 40
8.019
100
AcDbArc
 50
50.904453643
 51
128.932150801
  0
ARC
  5
771
330
1F
100
AcDbEntity
  8
0
  6
Continuous
 62
     1
100
AcDbCircle
 10
140.363690167
 20
330.0
 30
0.0
 40
8.019
100
AcDbArc
 50
141.01496162
 51
219.216233739
  0
ARC
  5
772
330
1F
100
AcDbEntity
  8
0
  6
Continuous
 62
     1
100
AcDbCircle
 10
140.363690167
 20
330.0
 30
0.0
 40
13.86
100
AcDbArc
 50
48.360791079
 51
131.942642493
  0
ARC
  5
773
330
1F
100
AcDbEntity
  8
0
  6
Continuous
 62
     1
100
AcDbCircle
 10
140.363690167
 20
330.0
 30
0.0
 40
13.86
100
AcDbArc
 50
138.453555746
 51
221.989655771
  0
ARC
  5
774
330
1F
100
AcDbEntity
  8
0
  6
Continuous
 62
     1
100
AcDbCircle
 10
140.363690167
 20
330.0
 30
0.0
 40
15.444
100
AcDbArc
 50
47.906842012
 51
131.848849025
  0
ARC
  5
775
330
1F
100
AcDbEntity
  8
0
  6
Continuous
 62
     1
100
AcDbCircle
 10
140.363690167
 20
330.0
 30
0.0
 40
15.444
100
AcDbArc
 50
137.90794334
 51
222.128209491
  0
ARC
  5
776
330
1F
100
AcDbEntity
  8
0
  6
Continuous
 62
     1
100
AcDbCircle
 10
140.363690167
 20
330.0
 30
0.0
 40
21.285
100
AcDbArc
 50
47.128982968
 51
132.864119959
  0
ARC
  5
777
330
1F
100
AcDbEntity
  8
0
  6
Continuous
 62
     1
100
AcDbCircle
 10
140.363690167
 20
330.0
 30
0.0
 40
21.285
100
AcDbArc
 50
137.30353915
 51
222.891944521
  0
ARC
  5
778
330
1F
100
AcDbEntity
  8
0
  6
Continuous
 62
     1
100
AcDbCircle
 10
140.363690167
 20
330.0
 30
0.0
 40
22.869
100
AcDbArc
 50
46.999759333
 51
132.788542426
  0
ARC
  5
779
330
1F
100
AcDbEntity
  8
0
  6
Continuous
 62
     1
100
AcDbCircle
 10
140.363690167
 20
330.0
 30
0.0
 40
22.869
100
AcDbArc
 50
137.091913636
 51
222.98454486
  0
ARC
  5
77A
330
1F
100
AcDbEntity
  8
0
  6
Continuous
 62
     1
100
AcDbCircle
 10
140.363690167
 20
330.0
 30
0.0
 40
28.71
100
AcDbArc
 50
46.593496782
 51
133.307859979
  0
ARC
  5
77B
330
1F
100
AcDbEntity
  8
0
  6
Continuous
 62
     1
100
AcDbCircle
 10
140.363690167
 20
330.0
 30
0.0
 40
28.71
100
AcDbArc
 50
136.621859285
 51
223.438292567
  0
ARC
  5
77C
330
1F
100
AcDbEntity
  8
0
  6
Continuous
 62
     1
100
AcDbCircle
 10
140.363690167
 20
330.0
 30
0.0
 40
30.294
100
AcDbArc
 50
46.523057881
 51
133.371311635
  0
ARC
  5
77D
330
1F
100
AcDbEntity
  8
0
  6
Continuous
 62
     1
100
AcDbCircle
 10
140.363690167
 20
330.0
 30
0.0
 40
30.294
100
AcDbArc
 50
136.576478536
 51
223.468295748
  0
ARC
  5
77E
330
1F
100
AcDbEntity
  8
0
  6
Continuous
 62
     1
100
AcDbCircle
 10
140.363690167
 20
330.0
 30
0.0
 40
36.135
100
AcDbArc
 50
46.220424538
 51
133.733108047
  0
ARC
  5
77F
330
1F
100
AcDbEntity
  8
0
  6
Continuous
 62
     1
100
AcDbCircle
 10
140.363690167
 20
330.0
 30
0.0
 40
36.135
100
AcDbArc
 50
136.389898692
 51
223.780521058
  0
ARC
  5
780
330
1F
100
AcDbEntity
  8
0
  6
Continuous
 62
     1
100
AcDbCircle
 10
140.363690167
 20
330.0
 30
0.0
 40
37.719
100
AcDbArc
 50
46.201788165
 51
133.680853834
  0
ARC
  5
781
330
1F
100
AcDbEntity
  8
0
  6
Continuous
 62
     1
100
AcDbCircle
 10
140.363690167
 20
330.0
 30
0.0
 40
37.719
100
AcDbArc
 50
136.28843816
 51
223.863772946
  0
CIRCLE
  5
782
330
1F
100
AcDbEntity
  8
0
  6
Continuous
 62
     1
100
AcDbCircle
 10
175.805690167
 20
294.558
 30
0.0
 40
3.96
  0
CIRCLE
  5
783
330
1F
100
AcDbEntity
  8
0
  6
Continuous
 62
     1
100
AcDbCircle
 10
175.805690167
 20
294.558
 30
0.0
 40
2.97
  0
LINE
  5
784
330
1F
100
AcDbEntity
  8
0
  6
Continuous
 62
     1
100
AcDbLine
 10
177.092690167
 20
293.271
 30
0.0
 11
174.518690167
 21
295.845
 31
0.0
  0
LINE
  5
785
330
1F
100
AcDbEntity
  8
0
  6
Continuous
 62
     1
100
AcDbLine
 10
174.518690167
 20
293.271
 30
0.0
 11
177.092690167
 21
295.845
 31
0.0
  0
CIRCLE
  5
786
330
1F
100
AcDbEntity
  8
0
  6
Continuous
 62
     1
100
AcDbCircle
 10
175.805690167
 20
365.442
 30
0.0
 40
3.96
  0
CIRCLE
  5
787
330
1F
100
AcDbEntity
  8
0
  6
Continuous
 62
     1
100
AcDbCircle
 10
175.805690167
 20
365.442
 30
0.0
 40
2.97
  0
LINE
  5
788
330
1F
100
AcDbEntity
  8
0
  6
Continuous
 62
     1
100
AcDbLine
 10
177.092690167
 20
364.155
 30
0.0
 11
174.518690167
 21
366.729
 31
0.0
  0
LINE
  5
789
330
1F
100
AcDbEntity
  8
0
  6
Continuous
 62
     1
100
AcDbLine
 10
174.518690167
 20
364.155
 30
0.0
 11
177.092690167
 21
366.729
 31
0.0
  0
CIRCLE
  5
78A
330
1F
100
AcDbEntity
  8
0
  6
Continuous
 62
     1
100
AcDbCircle
 10
104.921690167
 20
365.442
 30
0.0
 40
3.96
  0
CIRCLE
  5
78B
330
1F
100
AcDbEntity
  8
0
  6
Continuous
 62
     1
100
AcDbCircle
 10
104.921690167
 20
365.442
 30
0.0
 40
2.97
  0
LINE
  5
78C
330
1F
100
AcDbEntity
  8
0
  6
Continuous
 62
     1
100
AcDbLine
 10
106.208690167
 20
364.155
 30
0.0
 11
103.634690167
 21
366.729
 31
0.0
  0
LINE
  5
78D
330
1F
100
AcDbEntity
  8
0
  6
Continuous
 62
     1
100
AcDbLine
 10
103.634690167
 20
364.155
 30
0.0
 11
106.208690167
 21
366.729
 31
0.0
  0
CIRCLE
  5
78E
330
1F
100
AcDbEntity
  8
0
  6
Continuous
 62
     1
100
AcDbCircle
 10
104.921690167
 20
294.558
 30
0.0
 40
3.96
  0
CIRCLE
  5
78F
330
1F
100
AcDbEntity
  8
0
  6
Continuous
 62
     1
100
AcDbCircle
 10
104.921690167
 20
294.558
 30
0.0
 40
2.97
  0
LINE
  5
790
330
1F
100
AcDbEntity
  8
0
  6
Continuous
 62
     1
100
AcDbLine
 10
106.208690167
 20
293.271
 30
0.0
 11
103.634690167
 21
295.845
 31
0.0
  0
LINE
  5
791
330
1F
100
AcDbEntity
  8
0
  6
Continuous
 62
     1
100
AcDbLine
 10
103.634690167
 20
293.271
 30
0.0
 11
106.208690167
 21
295.845
 31
0.0
  0
TEXT
  5
792
330
1F
100
AcDbEntity
  8
0
  6
Continuous
 62
     1
100
AcDbText
 10
67.063690167
 20
181.47
 30
0.0
 40
5.0
  1
公差：±１
 41
1.0
  7
KANJI9
100
AcDbText
  0
TEXT
  5
794
330
1F
100
AcDbEntity
  8
0
  6
Continuous
 62
     1
100
AcDbText
 10
67.063690167
 20
173.97
 30
0.0
 40
5.0
  1
単位：ｍｍ
 41
1.0
  7
KANJI9
100
AcDbText
  0
TEXT
  5
795
330
1F
100
AcDbEntity
  8
0
  6
Continuous
 62
     1
100
AcDbText
 10
67.063690167
 20
143.97
 30
0.0
 40
4.5
  1
　　　　　　　　　　　アルミ　－　無処理
 41
1.0
  7
KANJI10
100
AcDbText
  0
TEXT
  5
797
330
1F
100
AcDbEntity
  8
0
  6
Continuous
 62
     1
100
AcDbText
 10
67.063690167
 20
166.47
 30
0.0
 40
5.0
  1
質量：４，０００ｇ
 41
1.0
  7
KANJI9
100
AcDbText
  0
LINE
  5
798
330
1F
100
AcDbEntity
  8
0
  6
Continuous
 62
     1
100
AcDbLine
 10
708.563690167
 20
335.75
 30
0.0
 11
713.034870505
 21
337.987978192
 31
0.0
  0
LINE
  5
799
330
1F
100
AcDbEntity
  8
0
  6
Continuous
 62
     1
100
AcDbLine
 10
708.563690167
 20
335.75
 30
0.0
 11
711.316856829
 21
339.923736136
 31
0.0
  0
LWPOLYLINE
  5
79B
330
1F
100
AcDbEntity
  8
0
  6
Continuous
 62
     1
100
AcDbPolyline
 90
     3
 70
   128
 43
0.0
 10
708.563690167
 20
335.75
 10
725.543690167
 20
350.82
 10
737.143690167
 20
350.82
  0
LINE
  5
79C
330
1F
100
AcDbEntity
  8
0
  6
Continuous
 62
     1
100
AcDbLine
 10
708.563690167
 20
335.75
 30
0.0
 11
713.034870505
 21
337.987978192
 31
0.0
  0
LINE
  5
79D
330
1F
100
AcDbEntity
  8
0
  6
Continuous
 62
     1
100
AcDbLine
 10
708.563690167
 20
335.75
 30
0.0
 11
711.316856829
 21
339.923736136
 31
0.0
  0
LINE
  5
79E
330
1F
100
AcDbEntity
  8
0
  6
Continuous
 62
     1
100
AcDbLine
 10
708.563690167
 20
335.75
 30
0.0
 11
725.543690167
 21
350.82
 31
0.0
  0
LINE
  5
79F
330
1F
100
AcDbEntity
  8
0
  6
Continuous
 62
     1
100
AcDbLine
 10
263.323690167
 20
180.71
 30
0.0
 11
263.323690167
 21
182.71
 31
0.0
  0
LINE
  5
7A0
330
1F
100
AcDbEntity
  8
0
  6
Continuous
 62
     1
100
AcDbLine
 10
263.323690167
 20
182.71
 30
0.0
 11
248.973690167
 21
182.71
 31
0.0
  0
LINE
  5
7A1
330
1F
100
AcDbEntity
  8
0
  6
Continuous
 62
     1
100
AcDbLine
 10
248.973690167
 20
182.71
 30
0.0
 11
248.973690167
 21
184.71
 31
0.0
  0
LINE
  5
7A2
330
1F
100
AcDbEntity
  8
0
  6
Continuous
 62
     1
100
AcDbLine
 10
248.973690167
 20
184.71
 30
0.0
 11
243.973690167
 21
181.71
 31
0.0
  0
LINE
  5
7A3
330
1F
100
AcDbEntity
  8
0
  6
Continuous
 62
     1
100
AcDbLine
 10
243.973690167
 20
181.71
 30
0.0
 11
248.973690167
 21
178.71
 31
0.0
  0
LINE
  5
7A4
330
1F
100
AcDbEntity
  8
0
  6
Continuous
 62
     1
100
AcDbLine
 10
248.973690167
 20
178.71
 30
0.0
 11
248.973690167
 21
180.71
 31
0.0
  0
LINE
  5
7A5
330
1F
100
AcDbEntity
  8
0
  6
Continuous
 62
     1
100
AcDbLine
 10
248.973690167
 20
180.71
 30
0.0
 11
263.323690167
 21
180.71
 31
0.0
  0
TEXT
  5
7A6
330
1F
100
AcDbEntity
  8
0
  6
Continuous
 62
     1
100
AcDbText
 10
245.973690167
 20
185.71
 30
0.0
 40
4.0
  1
　　Ａ　Ｉ　Ｒ
 41
0.5
  7
KANJI11
100
AcDbText
  0
LINE
  5
7A8
330
1F
100
AcDbEntity
  8
0
  6
Continuous
 62
     1
100
AcDbLine
 10
126.303690167
 20
447.709196136
 30
0.0
 11
125.591420967
 21
452.658203368
 31
0.0
  0
LINE
  5
7A9
330
1F
100
AcDbEntity
  8
0
  6
Continuous
 62
     1
100
AcDbLine
 10
126.303690167
 20
447.709196136
 30
0.0
 11
123.212343329
 21
451.639027522
 31
0.0
  0
LWPOLYLINE
  5
7AB
330
1F
100
AcDbEntity
  8
0
  6
Continuous
 62
     1
100
AcDbPolyline
 90
     3
 70
   128
 43
0.0
 10
126.303690167
 20
447.709196136
 10
112.723690167
 20
479.409196136
 10
164.923690167
 20
479.409196136
  0
TEXT
  5
7AC
330
1F
100
AcDbEntity
  8
0
  6
Continuous
 62
     1
100
AcDbText
 10
112.723690167
 20
481.409196136
 30
0.0
 40
6.0
  1
冷却用ファン　×２
 41
0.9
  7
KANJI12
100
AcDbText
  0
LINE
  5
7AE
330
1F
100
AcDbEntity
  8
0
  6
Continuous
 62
     1
100
AcDbLine
 10
311.963690167
 20
282.5
 30
0.0
 11
246.443690167
 21
282.5
 31
0.0
  0
LINE
  5
7AF
330
1F
100
AcDbEntity
  8
0
  6
Continuous
 62
     1
100
AcDbLine
 10
250.443690167
 20
282.5
 30
0.0
 11
251.737785393
 21
287.329629131
 31
0.0
  0
LINE
  5
7B0
330
1F
100
AcDbEntity
  8
0
  6
Continuous
 62
     1
100
AcDbLine
 10
250.443690167
 20
282.5
 30
0.0
 11
249.149594942
 21
287.329629131
 31
0.0
  0
LWPOLYLINE
  5
7B2
330
1F
100
AcDbEntity
  8
0
  6
Continuous
 62
     1
100
AcDbPolyline
 90
     3
 70
   128
 43
0.0
 10
250.443690167
 20
282.5
 10
250.443690167
 20
457.5
 10
249.149594942
 20
452.670370869
  0
LINE
  5
7B3
330
1F
100
AcDbEntity
  8
0
  6
Continuous
 62
     1
100
AcDbLine
 10
250.443690167
 20
457.5
 30
0.0
 11
251.737785393
 21
452.670370869
 31
0.0
  0
LINE
  5
7B4
330
1F
100
AcDbEntity
  8
0
  6
Continuous
 62
     1
100
AcDbLine
 10
311.963690167
 20
457.5
 30
0.0
 11
246.443690167
 21
457.5
 31
0.0
  0
TEXT
  5
7B5
330
1F
100
AcDbEntity
  8
0
  6
Continuous
 62
     1
100
AcDbText
 10
248.443690167
 20
361.2
 30
0.0
 40
6.0
  1
１７５
 50
90.0
 41
0.933333333
 51
15.0
  7
KANJI13
100
AcDbText
  0
LINE
  5
7B7
330
1F
100
AcDbEntity
  8
0
  6
Continuous
 62
     1
100
AcDbLine
 10
274.463690167
 20
270.0
 30
0.0
 11
228.843690167
 21
270.0
 31
0.0
  0
LINE
  5
7B8
330
1F
100
AcDbEntity
  8
0
  6
Continuous
 62
     1
100
AcDbLine
 10
232.843690167
 20
270.0
 30
0.0
 11
234.137785393
 21
274.829629131
 31
0.0
  0
LINE
  5
7B9
330
1F
100
AcDbEntity
  8
0
  6
Continuous
 62
     1
100
AcDbLine
 10
232.843690167
 20
270.0
 30
0.0
 11
231.549594942
 21
274.829629131
 31
0.0
  0
LWPOLYLINE
  5
7BB
330
1F
100
AcDbEntity
  8
0
  6
Continuous
 62
     1
100
AcDbPolyline
 90
     3
 70
   128
 43
0.0
 10
232.843690167
 20
270.0
 10
232.843690167
 20
470.0
 10
231.549594942
 20
465.170370869
  0
LINE
  5
7BC
330
1F
100
AcDbEntity
  8
0
  6
Continuous
 62
     1
100
AcDbLine
 10
232.843690167
 20
470.0
 30
0.0
 11
234.137785393
 21
465.170370869
 31
0.0
  0
LINE
  5
7BD
330
1F
100
AcDbEntity
  8
0
  6
Continuous
 62
     1
100
AcDbLine
 10
274.463690167
 20
470.0
 30
0.0
 11
228.843690167
 21
470.0
 31
0.0
  0
TEXT
  5
7BE
330
1F
100
AcDbEntity
  8
0
  6
Continuous
 62
     1
100
AcDbText
 10
230.843690167
 20
361.2
 30
0.0
 40
6.0
  1
２００
 50
90.0
 41
0.933333333
 51
15.0
  7
KANJI13
100
AcDbText
  0
LINE
  5
7BF
330
1F
100
AcDbEntity
  8
0
  6
Continuous
 62
     1
100
AcDbLine
 10
311.983690167
 20
219.21
 30
0.0
 11
228.843690167
 21
219.21
 31
0.0
  0
LINE
  5
7C0
330
1F
100
AcDbEntity
  8
0
  6
Continuous
 62
     1
100
AcDbLine
 10
232.843690167
 20
219.21
 30
0.0
 11
231.549594942
 21
214.380370869
 31
0.0
  0
LINE
  5
7C1
330
1F
100
AcDbEntity
  8
0
  6
Continuous
 62
     1
100
AcDbLine
 10
232.843690167
 20
219.21
 30
0.0
 11
234.137785393
 21
214.380370869
 31
0.0
  0
LWPOLYLINE
  5
7C3
330
1F
100
AcDbEntity
  8
0
  6
Continuous
 62
     1
100
AcDbPolyline
 90
     3
 70
   128
 43
0.0
 10
232.843690167
 20
219.21
 10
232.843690167
 20
144.21
 10
234.137785393
 20
149.039629131
  0
LINE
  5
7C4
330
1F
100
AcDbEntity
  8
0
  6
Continuous
 62
     1
100
AcDbLine
 10
232.843690167
 20
144.21
 30
0.0
 11
231.549594942
 21
149.039629131
 31
0.0
  0
LINE
  5
7C5
330
1F
100
AcDbEntity
  8
0
  6
Continuous
 62
     1
100
AcDbLine
 10
311.983690167
 20
144.21
 30
0.0
 11
228.843690167
 21
144.21
 31
0.0
  0
TEXT
  5
7C6
330
1F
100
AcDbEntity
  8
0
  6
Continuous
 62
     1
100
AcDbText
 10
230.843690167
 20
175.91
 30
0.0
 40
6.0
  1
７５
 50
90.0
 41
0.933333333
 51
15.0
  7
KANJI13
100
AcDbText
  0
LINE
  5
7C7
330
1F
100
AcDbEntity
  8
0
  6
Continuous
 62
     1
100
AcDbLine
 10
401.463690167
 20
459.5
 30
0.0
 11
401.463690167
 21
492.5
 31
0.0
  0
LINE
  5
7C8
330
1F
100
AcDbEntity
  8
0
  6
Continuous
 62
     1
100
AcDbLine
 10
401.463690167
 20
488.5
 30
0.0
 11
396.634061036
 21
489.794095226
 31
0.0
  0
LINE
  5
7C9
330
1F
100
AcDbEntity
  8
0
  6
Continuous
 62
     1
100
AcDbLine
 10
401.463690167
 20
488.5
 30
0.0
 11
396.634061036
 21
487.205904774
 31
0.0
  0
LWPOLYLINE
  5
7CB
330
1F
100
AcDbEntity
  8
0
  6
Continuous
 62
     1
100
AcDbPolyline
 90
     3
 70
   128
 43
0.0
 10
401.463690167
 20
488.5
 10
313.963690167
 20
488.5
 10
318.793319299
 20
487.205904774
  0
LINE
  5
7CC
330
1F
100
AcDbEntity
  8
0
  6
Continuous
 62
     1
100
AcDbLine
 10
313.963690167
 20
488.5
 30
0.0
 11
318.793319299
 21
489.794095226
 31
0.0
  0
LINE
  5
7CD
330
1F
100
AcDbEntity
  8
0
  6
Continuous
 62
     1
100
AcDbLine
 10
313.963690167
 20
459.5
 30
0.0
 11
313.963690167
 21
492.5
 31
0.0
  0
TEXT
  5
7CE
330
1F
100
AcDbEntity
  8
0
  6
Continuous
 62
     1
100
AcDbText
 10
345.913690167
 20
490.5
 30
0.0
 40
6.0
  1
８７．５
 41
0.933333333
 51
15.0
  7
KANJI13
100
AcDbText
  0
LINE
  5
7CF
330
1F
100
AcDbEntity
  8
0
  6
Continuous
 62
     1
100
AcDbLine
 10
401.463690167
 20
459.5
 30
0.0
 11
401.463690167
 21
492.5
 31
0.0
  0
LINE
  5
7D0
330
1F
100
AcDbEntity
  8
0
  6
Continuous
 62
     1
100
AcDbLine
 10
401.463690167
 20
488.5
 30
0.0
 11
406.293319299
 21
487.205904774
 31
0.0
  0
LINE
  5
7D1
330
1F
100
AcDbEntity
  8
0
  6
Continuous
 62
     1
100
AcDbLine
 10
401.463690167
 20
488.5
 30
0.0
 11
406.293319299
 21
489.794095226
 31
0.0
  0
LWPOLYLINE
  5
7D3
330
1F
100
AcDbEntity
  8
0
  6
Continuous
 62
     1
100
AcDbPolyline
 90
     3
 70
   128
 43
0.0
 10
401.463690167
 20
488.5
 10
488.963690167
 20
488.5
 10
484.134061036
 20
489.794095226
  0
LINE
  5
7D4
330
1F
100
AcDbEntity
  8
0
  6
Continuous
 62
     1
100
AcDbLine
 10
488.963690167
 20
488.5
 30
0.0
 11
484.134061036
 21
487.205904774
 31
0.0
  0
LINE
  5
7D5
330
1F
100
AcDbEntity
  8
0
  6
Continuous
 62
     1
100
AcDbLine
 10
488.963690167
 20
459.5
 30
0.0
 11
488.963690167
 21
492.5
 31
0.0
  0
TEXT
  5
7D6
330
1F
100
AcDbEntity
  8
0
  6
Continuous
 62
     1
100
AcDbText
 10
433.413690167
 20
490.5
 30
0.0
 40
6.0
  1
８７．５
 41
0.933333333
 51
15.0
  7
KANJI13
100
AcDbText
  0
LINE
  5
7D7
330
1F
100
AcDbEntity
  8
0
  6
Continuous
 62
     1
100
AcDbLine
 10
313.963690167
 20
490.5
 30
0.0
 11
313.963690167
 21
510.01
 31
0.0
  0
LINE
  5
7D8
330
1F
100
AcDbEntity
  8
0
  6
Continuous
 62
     1
100
AcDbLine
 10
313.963690167
 20
506.01
 30
0.0
 11
318.793319299
 21
504.715904774
 31
0.0
  0
LINE
  5
7D9
330
1F
100
AcDbEntity
  8
0
  6
Continuous
 62
     1
100
AcDbLine
 10
313.963690167
 20
506.01
 30
0.0
 11
318.793319299
 21
507.304095226
 31
0.0
  0
LWPOLYLINE
  5
7DB
330
1F
100
AcDbEntity
  8
0
  6
Continuous
 62
     1
100
AcDbPolyline
 90
     3
 70
   128
 43
0.0
 10
313.963690167
 20
506.01
 10
488.963690167
 20
506.01
 10
484.134061036
 20
507.304095226
  0
LINE
  5
7DC
330
1F
100
AcDbEntity
  8
0
  6
Continuous
 62
     1
100
AcDbLine
 10
488.963690167
 20
506.01
 30
0.0
 11
484.134061036
 21
504.715904774
 31
0.0
  0
LINE
  5
7DD
330
1F
100
AcDbEntity
  8
0
  6
Continuous
 62
     1
100
AcDbLine
 10
488.963690167
 20
490.5
 30
0.0
 11
488.963690167
 21
510.01
 31
0.0
  0
TEXT
  5
7DE
330
1F
100
AcDbEntity
  8
0
  6
Continuous
 62
     1
100
AcDbText
 10
392.663690167
 20
508.01
 30
0.0
 40
6.0
  1
１７５
 41
0.933333333
 51
15.0
  7
KANJI13
100
AcDbText
  0
LINE
  5
7DF
330
1F
100
AcDbEntity
  8
0
  6
Continuous
 62
     1
100
AcDbLine
 10
276.463690167
 20
472.0
 30
0.0
 11
276.463690167
 21
527.52
 31
0.0
  0
LINE
  5
7E0
330
1F
100
AcDbEntity
  8
0
  6
Continuous
 62
     1
100
AcDbLine
 10
276.463690167
 20
523.52
 30
0.0
 11
281.293319299
 21
522.225904774
 31
0.0
  0
LINE
  5
7E1
330
1F
100
AcDbEntity
  8
0
  6
Continuous
 62
     1
100
AcDbLine
 10
276.463690167
 20
523.52
 30
0.0
 11
281.293319299
 21
524.814095226
 31
0.0
  0
LWPOLYLINE
  5
7E3
330
1F
100
AcDbEntity
  8
0
  6
Continuous
 62
     1
100
AcDbPolyline
 90
     3
 70
   128
 43
0.0
 10
276.463690167
 20
523.52
 10
526.463690167
 20
523.52
 10
521.634061036
 20
524.814095226
  0
LINE
  5
7E4
330
1F
100
AcDbEntity
  8
0
  6
Continuous
 62
     1
100
AcDbLine
 10
526.463690167
 20
523.52
 30
0.0
 11
521.634061036
 21
522.225904774
 31
0.0
  0
LINE
  5
7E5
330
1F
100
AcDbEntity
  8
0
  6
Continuous
 62
     1
100
AcDbLine
 10
526.463690167
 20
472.0
 30
0.0
 11
526.463690167
 21
527.52
 31
0.0
  0
TEXT
  5
7E6
330
1F
100
AcDbEntity
  8
0
  6
Continuous
 62
     1
100
AcDbText
 10
392.663690167
 20
525.52
 30
0.0
 40
6.0
  1
２５０
 41
0.933333333
 51
15.0
  7
KANJI13
100
AcDbText
  0
LINE
  5
7E7
330
1F
100
AcDbEntity
  8
0
  6
Continuous
 62
     1
100
AcDbLine
 10
526.463690167
 20
472.0
 30
0.0
 11
526.463690167
 21
527.52
 31
0.0
  0
LINE
  5
7E8
330
1F
100
AcDbEntity
  8
0
  6
Continuous
 62
     1
100
AcDbLine
 10
526.463690167
 20
523.52
 30
0.0
 11
521.634061036
 21
524.814095226
 31
0.0
  0
LINE
  5
7E9
330
1F
100
AcDbEntity
  8
0
  6
Continuous
 62
     1
100
AcDbLine
 10
526.463690167
 20
523.52
 30
0.0
 11
521.634061036
 21
522.225904774
 31
0.0
  0
LWPOLYLINE
  5
7EB
330
1F
100
AcDbEntity
  8
0
  6
Continuous
 62
     1
100
AcDbPolyline
 90
     4
 70
   128
 43
0.0
 10
518.963690167
 20
523.52
 10
526.463690167
 20
523.52
 10
550.463690167
 20
523.52
 10
587.563690167
 20
523.52
  0
LINE
  5
7EC
330
1F
100
AcDbEntity
  8
0
  6
Continuous
 62
     1
100
AcDbLine
 10
550.463690167
 20
523.52
 30
0.0
 11
555.293319299
 21
522.225904774
 31
0.0
  0
LINE
  5
7ED
330
1F
100
AcDbEntity
  8
0
  6
Continuous
 62
     1
100
AcDbLine
 10
550.463690167
 20
523.52
 30
0.0
 11
555.293319299
 21
524.814095226
 31
0.0
  0
LINE
  5
7EE
330
1F
100
AcDbEntity
  8
0
  6
Continuous
 62
     1
100
AcDbLine
 10
550.463690167
 20
339.0
 30
0.0
 11
550.463690167
 21
527.52
 31
0.0
  0
TEXT
  5
7EF
330
1F
100
AcDbEntity
  8
0
  6
Continuous
 62
     1
100
AcDbText
 10
557.963690167
 20
525.52
 30
0.0
 40
6.0
  1
２４ｍａｘ
 41
0.933333333
 51
15.0
  7
KANJI13
100
AcDbText
  0
LINE
  5
7F0
330
1F
100
AcDbEntity
  8
0
  6
Continuous
 62
     1
100
AcDbLine
 10
274.463690167
 20
228.21
 30
0.0
 11
211.943690167
 21
228.21
 31
0.0
  0
LINE
  5
7F1
330
1F
100
AcDbEntity
  8
0
  6
Continuous
 62
     1
100
AcDbLine
 10
215.943690167
 20
228.21
 30
0.0
 11
214.649594942
 21
223.380370869
 31
0.0
  0
LINE
  5
7F2
330
1F
100
AcDbEntity
  8
0
  6
Continuous
 62
     1
100
AcDbLine
 10
215.943690167
 20
228.21
 30
0.0
 11
217.237785393
 21
223.380370869
 31
0.0
  0
LWPOLYLINE
  5
7F4
330
1F
100
AcDbEntity
  8
0
  6
Continuous
 62
     1
100
AcDbPolyline
 90
     3
 70
   128
 43
0.0
 10
215.943690167
 20
228.21
 10
215.943690167
 20
135.21
 10
217.237785393
 20
140.039629131
  0
LINE
  5
7F5
330
1F
100
AcDbEntity
  8
0
  6
Continuous
 62
     1
100
AcDbLine
 10
215.943690167
 20
135.21
 30
0.0
 11
214.649594942
 21
140.039629131
 31
0.0
  0
LINE
  5
7F6
330
1F
100
AcDbEntity
  8
0
  6
Continuous
 62
     1
100
AcDbLine
 10
274.463690167
 20
135.21
 30
0.0
 11
211.943690167
 21
135.21
 31
0.0
  0
TEXT
  5
7F7
330
1F
100
AcDbEntity
  8
0
  6
Continuous
 62
     1
100
AcDbText
 10
213.943690167
 20
175.91
 30
0.0
 40
6.0
  1
９３
 50
90.0
 41
0.933333333
 51
15.0
  7
KANJI13
100
AcDbText
  0
LINE
  5
7F8
330
1F
100
AcDbEntity
  8
0
  6
Continuous
 62
     1
100
AcDbLine
 10
490.473690167
 20
280.47
 30
0.0
 11
493.263065907
 21
276.320375561
 31
0.0
  0
LINE
  5
7F9
330
1F
100
AcDbEntity
  8
0
  6
Continuous
 62
     1
100
AcDbLine
 10
490.473690167
 20
280.47
 30
0.0
 11
494.964172638
 21
278.271007689
 31
0.0
  0
LWPOLYLINE
  5
7FB
330
1F
100
AcDbEntity
  8
0
  6
Continuous
 62
     1
100
AcDbPolyline
 90
     3
 70
   128
 43
0.0
 10
490.473690167
 20
280.47
 10
551.683690167
 20
227.09
 10
619.783690167
 20
227.09
  0
LINE
  5
7FC
330
1F
100
AcDbEntity
  8
0
  6
Continuous
 62
     1
100
AcDbLine
 10
543.673690167
 20
297.17
 30
0.0
 11
544.751674828
 21
292.287587782
 31
0.0
  0
LINE
  5
7FD
330
1F
100
AcDbEntity
  8
0
  6
Continuous
 62
     1
100
AcDbLine
 10
543.673690167
 20
297.17
 30
0.0
 11
547.048458378
 21
293.480699317
 31
0.0
  0
LWPOLYLINE
  5
7FF
330
1F
100
AcDbEntity
  8
0
  6
Continuous
 62
     1
100
AcDbPolyline
 90
     3
 70
   128
 43
0.0
 10
543.673690167
 20
297.17
 10
564.083690167
 20
257.88
 10
576.483690167
 20
257.88
  0
TEXT
  5
800
330
1F
100
AcDbEntity
  8
0
  6
Continuous
 62
     1
100
AcDbText
 10
564.083690167
 20
259.88
 30
0.0
 40
6.0
  1
２－Ｍ５
 41
0.45
  7
KANJI14
100
AcDbText
  0
LINE
  5
803
330
1F
100
AcDbEntity
  8
0
  6
LTYPE2
 62
     1
100
AcDbLine
 10
487.463690167
 20
355.75
 30
0.0
 11
501.463690167
 21
355.75
 31
0.0
  0
LINE
  5
804
330
1F
100
AcDbEntity
  8
0
  6
LTYPE2
 62
     1
100
AcDbLine
 10
507.463690167
 20
355.75
 30
0.0
 11
521.463690167
 21
355.75
 31
0.0
  0
LINE
  5
805
330
1F
100
AcDbEntity
  8
0
  6
LTYPE2
 62
     1
100
AcDbLine
 10
501.463690167
 20
315.75
 30
0.0
 11
487.463690167
 21
315.75
 31
0.0
  0
LINE
  5
806
330
1F
100
AcDbEntity
  8
0
  6
LTYPE2
 62
     1
100
AcDbLine
 10
521.463690167
 20
315.75
 30
0.0
 11
507.463690167
 21
315.75
 31
0.0
  0
TEXT
  5
807
330
1F
100
AcDbEntity
  8
0
  6
Continuous
 62
     1
100
AcDbText
 10
497.463690167
 20
327.95
 30
0.0
 40
5.0
  1
注　意
 50
90.0
 41
1.0
  7
KANJI9
100
AcDbText
  0
TEXT
  5
808
330
1F
100
AcDbEntity
  8
0
  6
Continuous
 62
     1
100
AcDbText
 10
517.463690167
 20
327.95
 30
0.0
 40
5.0
  1
注　意
 50
90.0
 41
1.0
  7
KANJI9
100
AcDbText
  0
LINE
  5
809
330
1F
100
AcDbEntity
  8
0
  6
LTYPE2
 62
     1
100
AcDbLine
 10
487.463690167
 20
315.75
 30
0.0
 11
487.463690167
 21
355.75
 31
0.0
  0
LINE
  5
80A
330
1F
100
AcDbEntity
  8
0
  6
LTYPE2
 62
     1
100
AcDbLine
 10
501.463690167
 20
355.75
 30
0.0
 11
501.463690167
 21
315.75
 31
0.0
  0
LINE
  5
80B
330
1F
100
AcDbEntity
  8
0
  6
LTYPE2
 62
     1
100
AcDbLine
 10
521.463690167
 20
355.75
 30
0.0
 11
521.463690167
 21
315.75
 31
0.0
  0
LINE
  5
80C
330
1F
100
AcDbEntity
  8
0
  6
LTYPE2
 62
     1
100
AcDbLine
 10
507.463690167
 20
315.75
 30
0.0
 11
507.463690167
 21
355.75
 31
0.0
  0
TEXT
  5
80D
330
1F
100
AcDbEntity
  8
0
  6
Continuous
 62
     1
100
AcDbText
 10
668.193690167
 20
365.63
 30
0.0
 40
2.0
  1
ＯＵＴＰＵＴ
 50
270.0
 41
0.5
  7
KANJI6
100
AcDbText
  0
TEXT
  5
80E
330
1F
100
AcDbEntity
  8
0
  6
Continuous
 62
     1
100
AcDbText
 10
668.193690167
 20
365.63
 30
0.0
 40
2.0
  1
ＯＵＴＰＵＴ　　　　　ＶＡ
 50
270.0
 41
0.5
  7
KANJI6
100
AcDbText
  0
TEXT
  5
80F
330
1F
100
AcDbEntity
  8
0
  6
Continuous
 62
     1
100
AcDbText
 10
672.193690167
 20
365.63
 30
0.0
 40
2.0
  1
ＩＮＰＵＴ　　　　　　Ｖ
 50
270.0
 41
0.5
  7
KANJI6
100
AcDbText
  0
LINE
  5
810
330
1F
100
AcDbEntity
  8
0
  6
Continuous
 62
     1
100
AcDbLine
 10
672.193690167
 20
358.63
 30
0.0
 11
672.193690167
 21
355.63
 31
0.0
  0
LWPOLYLINE
  5
812
330
1F
100
AcDbEntity
  8
0
  6
Continuous
 62
     1
100
AcDbPolyline
 90
     4
 70
   128
 43
0.0
 10
672.193690167
 20
355.63
 10
674.193690167
 20
355.63
 10
674.193690167
 20
358.63
 10
672.193690167
 20
358.63
  0
LWPOLYLINE
  5
814
330
1F
100
AcDbEntity
  8
0
  6
Continuous
 62
     1
100
AcDbPolyline
 90
     4
 70
   129
 43
0.0
 10
668.193690167
 20
358.63
 10
668.193690167
 20
355.63
 10
670.193690167
 20
355.63
 10
670.193690167
 20
358.63
  0
TEXT
  5
815
330
1F
100
AcDbEntity
  8
0
  6
Continuous
 62
     1
100
AcDbText
 10
551.683690167
 20
229.09
 30
0.0
 40
6.0
  1
６－Ｍ４×Ｄ７　取付用ネジ穴
 41
0.9
  7
KANJI12
100
AcDbText
  0
LINE
  5
816
330
1F
100
AcDbEntity
  8
0
  6
Continuous
 62
     1
100
AcDbLine
 10
490.693690167
 20
142.33
 30
0.0
 11
491.319680542
 21
137.369341168
 31
0.0
  0
LINE
  5
817
330
1F
100
AcDbEntity
  8
0
  6
Continuous
 62
     1
100
AcDbLine
 10
490.693690167
 20
142.33
 30
0.0
 11
493.71614315
 21
138.346938619
 31
0.0
  0
LWPOLYLINE
  5
819
330
1F
100
AcDbEntity
  8
0
  6
Continuous
 62
     1
100
AcDbPolyline
 90
     3
 70
   128
 43
0.0
 10
490.693690167
 20
142.33
 10
505.913690167
 20
105.02
 10
570.913690167
 20
105.02
  0
TEXT
  5
81A
330
1F
100
AcDbEntity
  8
0
  6
Continuous
 62
     1
100
AcDbText
 10
505.913690167
 20
107.02
 30
0.0
 40
6.0
  1
６－Ｍ４×Ｄ７　取付用ネジ穴
 41
0.9
 51
15.0
  7
KANJI15
100
AcDbText
  0
TEXT
  5
81C
330
1F
100
AcDbEntity
  8
0
  6
Continuous
 62
     1
100
AcDbText
 10
725.543690167
 20
352.82
 30
0.0
 40
6.0
  1
注意
 41
0.9
 51
15.0
  7
KANJI15
100
AcDbText
  0
LINE
  5
81D
330
1F
100
AcDbEntity
  8
0
  6
Continuous
 62
     1
100
AcDbLine
 10
695.505010511
 20
442.991320344
 30
0.0
 11
700.029887665
 21
445.118639487
 31
0.0
  0
LINE
  5
81E
330
1F
100
AcDbEntity
  8
0
  6
Continuous
 62
     1
100
AcDbLine
 10
695.505010511
 20
442.991320344
 30
0.0
 11
698.360009504
 21
447.096071341
 31
0.0
  0
LWPOLYLINE
  5
820
330
1F
100
AcDbEntity
  8
0
  6
Continuous
 62
     1
100
AcDbPolyline
 90
     3
 70
   128
 43
0.0
 10
695.505010511
 20
442.991320344
 10
724.373690167
 20
467.37
 10
765.773690167
 20
467.37
  0
TEXT
  5
821
330
1F
100
AcDbEntity
  8
0
  6
Continuous
 62
     1
100
AcDbText
 10
724.373690167
 20
469.37
 30
0.0
 40
6.0
  1
７－Ｍ４　端子ネジ
 41
0.9
 51
15.0
  7
KANJI15
100
AcDbText
  0
TEXT
  5
822
330
1F
100
AcDbEntity
  8
0
  6
Continuous
 62
     1
100
AcDbText
 10
67.063690167
 20
158.97
 30
0.0
 40
5.0
  1
ケース：鉄・アルミ
 41
1.0
  7
KANJI9
100
AcDbText
  0
TEXT
  5
823
330
1F
100
AcDbEntity
  8
0
  6
Continuous
 62
     1
100
AcDbText
 10
67.063690167
 20
151.47
 30
0.0
 40
5.0
  1
表面処理：鉄　－　三価クロメートメッキ
 41
1.0
  7
KANJI9
100
AcDbText
  0
TEXT
  5
824
330
1F
100
AcDbEntity
  8
0
  6
Continuous
 62
     1
100
AcDbText
 10
67.063690167
 20
136.47
 30
0.0
 40
5.0
  1
端子カバー：ワンタッチカバー
 41
1.0
  7
KANJI16
100
AcDbText
  0
ENDSEC
  0
SECTION
  2
OBJECTS
  0
DICTIONARY
  5
C
330
0
100
AcDbDictionary
280
     0
281
     1
  3
ACAD_GROUP
350
D
  3
ACAD_LAYOUT
350
1A
  3
ACAD_MLINESTYLE
350
17
  3
ACAD_PLOTSETTINGS
350
19
  3
ACAD_PLOTSTYLENAME
350
E
  0
DICTIONARY
  5
D
102
{ACAD_REACTORS
330
C
102
}
330
C
100
AcDbDictionary
280
     0
281
     1
  0
DICTIONARY
  5
1A
102
{ACAD_REACTORS
330
C
102
}
330
C
100
AcDbDictionary
280
     0
281
     1
  3
Model
350
22
  3
ﾚｲｱｳﾄ1
350
1E
  3
ﾚｲｱｳﾄ2
350
26
  0
LAYOUT
  5
22
102
{ACAD_REACTORS
330
1A
102
}
330
1A
100
AcDbPlotSettings
  1

  2

  4

  6

 40
0.0
 41
0.0
 42
0.0
 43
0.0
 44
0.0
 45
0.0
 46
0.0
 47
0.0
 48
0.0
 49
0.0
140
0.0
141
0.0
142
1.0
143
1.0
 70
  1712
 72
     0
 73
     0
 74
     0
  7

 75
     0
147
1.0
148
0.0
149
0.0
100
AcDbLayout
  1
Model
 70
     1
 71
     0
 10
0.0
 20
0.0
 11
0.0
 21
0.0
 12
0.0
 22
0.0
 32
0.0
 14
0.0
 24
0.0
 34
0.0
 15
0.0
 25
0.0
 35
0.0
146
0.0
 13
0.0
 23
0.0
 33
0.0
 16
1.0
 26
0.0
 36
0.0
 17
0.0
 27
1.0
 37
0.0
 76
     0
330
1F
331
0
345
0
346
0
  0
LAYOUT
  5
1E
102
{ACAD_REACTORS
330
1A
102
}
330
1A
100
AcDbPlotSettings
  1

  2

  4

  6

 40
0.0
 41
0.0
 42
0.0
 43
0.0
 44
0.0
 45
0.0
 46
0.0
 47
0.0
 48
0.0
 49
0.0
140
0.0
141
0.0
142
1.0
143
1.0
 70
   688
 72
     0
 73
     0
 74
     5
  7

 75
    16
147
1.0
148
0.0
149
0.0
100
AcDbLayout
  1
ﾚｲｱｳﾄ1
 70
     1
 71
     1
 10
0.0
 20
0.0
 11
0.0
 21
0.0
 12
0.0
 22
0.0
 32
0.0
 14
0.0
 24
0.0
 34
0.0
 15
0.0
 25
0.0
 35
0.0
146
0.0
 13
0.0
 23
0.0
 33
0.0
 16
1.0
 26
0.0
 36
0.0
 17
0.0
 27
1.0
 37
0.0
 76
     0
330
1B
331
0
345
0
346
0
  0
LAYOUT
  5
26
102
{ACAD_REACTORS
330
1A
102
}
330
1A
100
AcDbPlotSettings
  1

  2

  4

  6

 40
0.0
 41
0.0
 42
0.0
 43
0.0
 44
0.0
 45
0.0
 46
0.0
 47
0.0
 48
0.0
 49
0.0
140
0.0
141
0.0
142
1.0
143
1.0
 70
   688
 72
     0
 73
     0
 74
     5
  7

 75
    16
147
1.0
148
0.0
149
0.0
100
AcDbLayout
  1
ﾚｲｱｳﾄ2
 70
     1
 71
     2
 10
0.0
 20
0.0
 11
0.0
 21
0.0
 12
0.0
 22
0.0
 32
0.0
 14
0.0
 24
0.0
 34
0.0
 15
0.0
 25
0.0
 35
0.0
146
0.0
 13
0.0
 23
0.0
 33
0.0
 16
1.0
 26
0.0
 36
0.0
 17
0.0
 27
1.0
 37
0.0
 76
     0
330
23
331
0
345
0
346
0
  0
DICTIONARY
  5
17
102
{ACAD_REACTORS
330
C
102
}
330
C
100
AcDbDictionary
280
     0
281
     1
  3
Standard
350
18
  0
MLINESTYLE
  5
18
102
{ACAD_REACTORS
330
17
102
}
330
17
100
AcDbMlineStyle
  2
STANDARD
 70
     0
  3

 62
   256
 51
90.0
 52
90.0
 71
     2
 49
0.5
 62
   256
  6
ByLayer
 49
-0.5
 62
   256
  6
ByLayer
  0
DICTIONARY
  5
19
102
{ACAD_REACTORS
330
C
102
}
330
C
100
AcDbDictionary
280
     0
281
     1
  0
ACDBDICTIONARYWDFLT
  5
E
330
C
100
AcDbDictionary
281
     0
  3
Normal
350
F
100
AcDbDictionaryWithDefault
340
F
  0
ACDBPLACEHOLDER
  5
F
102
{ACAD_REACTORS
330
E
102
}
330
E
  0
ENDSEC
  0
EOF
