  0
SECTION
  2
HEADER
  9
$ACADVER
  1
AC1015
  9
$ACADMAINTVER
 70
     6
  9
$DWGCODEPAGE
  3
ANSI_932
  9
$INSBASE
 10
0.0
 20
0.0
 30
0.0
  9
$EXTMIN
 10
0.0
 20
0.0
 30
1.000000E+20
  9
$EXTMAX
 10
2100.0
 20
1485.0
 30
-1.000000E+20
  9
$LIMMIN
 10
0.0
 20
0.0
  9
$LIMMAX
 10
2100.0
 20
1485.0
  9
$ORTHOMODE
 70
     0
  9
$REGENMODE
 70
     1
  9
$FILLMODE
 70
     1
  9
$QTEXTMODE
 70
     0
  9
$MIRRTEXT
 70
     1
  9
$LTSCALE
 40
1.0
  9
$ATTMODE
 70
     1
  9
$TEXTSIZE
 40
2.5
  9
$TRACEWID
 40
1.0
  9
$TEXTSTYLE
  7
Standard
  9
$CLAYER
  8
0
  9
$CELTYPE
  6
ByLayer
  9
$CECOLOR
 62
   256
  9
$CELTSCALE
 40
1.0
  9
$DISPSILH
 70
     0
  9
$DIMSCALE
 40
1.0
  9
$DIMASZ
 40
2.5
  9
$DIMEXO
 40
0.625
  9
$DIMDLI
 40
3.75
  9
$DIMRND
 40
0.0
  9
$DIMDLE
 40
0.0
  9
$DIMEXE
 40
1.25
  9
$DIMTP
 40
0.0
  9
$DIMTM
 40
0.0
  9
$DIMTXT
 40
2.5
  9
$DIMCEN
 40
2.5
  9
$DIMTSZ
 40
0.0
  9
$DIMTOL
 70
     0
  9
$DIMLIM
 70
     0
  9
$DIMTIH
 70
     0
  9
$DIMTOH
 70
     0
  9
$DIMSE1
 70
     0
  9
$DIMSE2
 70
     0
  9
$DIMTAD
 70
     1
  9
$DIMZIN
 70
     8
  9
$DIMBLK
  1

  9
$DIMASO
 70
     1
  9
$DIMSHO
 70
     1
  9
$DIMPOST
  1

  9
$DIMAPOST
  1

  9
$DIMALT
 70
     0
  9
$DIMALTD
 70
     3
  9
$DIMALTF
 40
0.03937007874016
  9
$DIMLFAC
 40
1.0
  9
$DIMTOFL
 70
     1
  9
$DIMTVP
 40
0.0
  9
$DIMTIX
 70
     0
  9
$DIMSOXD
 70
     0
  9
$DIMSAH
 70
     0
  9
$DIMBLK1
  1

  9
$DIMBLK2
  1

  9
$DIMSTYLE
  2
ISO-25
  9
$DIMCLRD
 70
     0
  9
$DIMCLRE
 70
     0
  9
$DIMCLRT
 70
     0
  9
$DIMTFAC
 40
1.0
  9
$DIMGAP
 40
0.625
  9
$DIMJUST
 70
     0
  9
$DIMSD1
 70
     0
  9
$DIMSD2
 70
     0
  9
$DIMTOLJ
 70
     0
  9
$DIMTZIN
 70
     8
  9
$DIMALTZ
 70
     0
  9
$DIMALTTZ
 70
     0
  9
$DIMUPT
 70
     0
  9
$DIMDEC
 70
     2
  9
$DIMTDEC
 70
     2
  9
$DIMALTU
 70
     2
  9
$DIMALTTD
 70
     3
  9
$DIMTXSTY
  7
Standard
  9
$DIMAUNIT
 70
     0
  9
$DIMADEC
 70
     0
  9
$DIMALTRND
 40
0.0
  9
$DIMAZIN
 70
     0
  9
$DIMDSEP
 70
    46
  9
$DIMATFIT
 70
     3
  9
$DIMFRAC
 70
     0
  9
$DIMLDRBLK
  1

  9
$DIMLUNIT
 70
     2
  9
$DIMLWD
 70
    -2
  9
$DIMLWE
 70
    -2
  9
$DIMTMOVE
 70
     0
  9
$LUNITS
 70
     2
  9
$LUPREC
 70
     4
  9
$SKETCHINC
 40
1.0
  9
$FILLETRAD
 40
10.0
  9
$AUNITS
 70
     0
  9
$AUPREC
 70
     0
  9
$MENU
  1
.
  9
$ELEVATION
 40
0.0
  9
$PELEVATION
 40
0.0
  9
$THICKNESS
 40
0.0
  9
$LIMCHECK
 70
     0
  9
$CHAMFERA
 40
10.0
  9
$CHAMFERB
 40
10.0
  9
$CHAMFERC
 40
20.0
  9
$CHAMFERD
 40
0.0
  9
$SKPOLY
 70
     0
  9
$TDCREATE
 40
2455383.000000
  9
$TDUCREATE
 40
0.000000000
  9
$TDUPDATE
 40
2455383.000000
  9
$TDUUPDATE
 40
2455383.000000
  9
$TDINDWG
 40
0.0
  9
$TDUSRTIMER
 40
0.0
  9
$USRTIMER
 70
     1
  9
$ANGBASE
 50
0.0
  9
$ANGDIR
 70
     0
  9
$PDMODE
 70
     0
  9
$PDSIZE
 40
0.0
  9
$PLINEWID
 40
0.0
  9
$SPLFRAME
 70
     0
  9
$SPLINETYPE
 70
     6
  9
$SPLINESEGS
 70
     8
  9
$HANDSEED
  5
0621
  9
$SURFTAB1
 70
     6
  9
$SURFTAB2
 70
     6
  9
$SURFTYPE
 70
     6
  9
$SURFU
 70
     6
  9
$SURFV
 70
     6
  9
$UCSBASE
  2

  9
$UCSNAME
  2

  9
$UCSORG
 10
0.0
 20
0.0
 30
0.0
  9
$UCSXDIR
 10
1.0
 20
0.0
 30
0.0
  9
$UCSYDIR
 10
0.0
 20
1.0
 30
0.0
  9
$UCSORTHOREF
  2

  9
$UCSORTHOVIEW
 70
     0
  9
$UCSORGTOP
 10
0.0
 20
0.0
 30
0.0
  9
$UCSORGBOTTOM
 10
0.0
 20
0.0
 30
0.0
  9
$UCSORGLEFT
 10
0.0
 20
0.0
 30
0.0
  9
$UCSORGRIGHT
 10
0.0
 20
0.0
 30
0.0
  9
$UCSORGFRONT
 10
0.0
 20
0.0
 30
0.0
  9
$UCSORGBACK
 10
0.0
 20
0.0
 30
0.0
  9
$PUCSBASE
  2

  9
$PUCSNAME
  2

  9
$PUCSORG
 10
0.0
 20
0.0
 30
0.0
  9
$PUCSXDIR
 10
1.0
 20
0.0
 30
0.0
  9
$PUCSYDIR
 10
0.0
 20
1.0
 30
0.0
  9
$PUCSORTHOREF
  2

  9
$PUCSORTHOVIEW
 70
     0
  9
$PUCSORGTOP
 10
0.0
 20
0.0
 30
0.0
  9
$PUCSORGBOTTOM
 10
0.0
 20
0.0
 30
0.0
  9
$PUCSORGLEFT
 10
0.0
 20
0.0
 30
0.0
  9
$PUCSORGRIGHT
 10
0.0
 20
0.0
 30
0.0
  9
$PUCSORGFRONT
 10
0.0
 20
0.0
 30
0.0
  9
$PUCSORGBACK
 10
0.0
 20
0.0
 30
0.0
  9
$USERI1
 70
     0
  9
$USERI2
 70
     0
  9
$USERI3
 70
     0
  9
$USERI4
 70
     0
  9
$USERI5
 70
     0
  9
$USERR1
 40
0.0
  9
$USERR2
 40
0.0
  9
$USERR3
 40
0.0
  9
$USERR4
 40
0.0
  9
$USERR5
 40
0.0
  9
$WORLDVIEW
 70
     1
  9
$SHADEDGE
 70
     3
  9
$SHADEDIF
 70
    70
  9
$TILEMODE
 70
     1
  9
$MAXACTVP
 70
    64
  9
$PINSBASE
 10
0.0
 20
0.0
 30
0.0
  9
$PLIMCHECK
 70
     0
  9
$PEXTMIN
 10
1.000000E+20
 20
1.000000E+20
 30
1.000000E+20
  9
$PEXTMAX
 10
-1.000000E+20
 20
-1.000000E+20
 30
-1.000000E+20
  9
$PLIMMIN
 10
0.0
 20
0.0
  9
$PLIMMAX
 10
0.0
 20
0.0
  9
$UNITMODE
 70
     0
  9
$VISRETAIN
 70
     0
  9
$PLINEGEN
 70
     0
  9
$PSLTSCALE
 70
     1
  9
$TREEDEPTH
 70
  3020
  9
$CMLSTYLE
  2
STANDARD
  9
$CMLJUST
 70
     0
  9
$CMLSCALE
 40
20.0
  9
$PROXYGRAPHICS
 70
     1
  9
$MEASUREMENT
 70
     1
  9
$CELWEIGHT
370
    -1
  9
$ENDCAPS
280
     0
  9
$JOINSTYLE
280
     0
  9
$LWDISPLAY
290
     0
  9
$INSUNITS
 70
     4
  9
$HYPERLINKBASE
  1

  9
$STYLESHEET
  1

  9
$XEDIT
290
     1
  9
$CEPSNTYPE
380
     0
  9
$PSTYLEMODE
290
     1
  9
$FINGERPRINTGUID
  2
{5F07E771-469F-7CDA-D3E1-3D42D37401BA}
  9
$VERSIONGUID
  2
{5F07E771-469F-7CDA-D3E1-3D42D37401BA}
  9
$EXTNAMES
290
     1
  9
$PSVPSCALE
 40
0.0
  0
ENDSEC
  0
SECTION
  2
CLASSES
  0
ENDSEC
  0
SECTION
  2
TABLES
  0
TABLE
  2
VPORT
  5
8
330
0
100
AcDbSymbolTable
 70
     3
  0
VPORT
  5
29
330
8
100
AcDbSymbolTableRecord
100
AcDbViewportTableRecord
  2
*Active
 70
     0
 10
0.0
 20
0.0
 11
1.0
 21
1.0
 12
1050.0
 22
742.5
 13
0.0
 23
0.0
 14
10.0
 24
10.0
 15
0.0
 25
0.0
 16
0.0
 26
0.0
 36
1.0
 17
0.0
 27
0.0
 37
0.0
 40
1485.0
 41
1.414141414
 42
50.0
 43
0.0
 44
0.0
 50
0.0
 51
0.0
 71
     0
 72
     0
 73
     0
 74
     0
 75
     0
 76
     0
 77
     0
 78
     0
281
     0
 65
     0
110
0.0
120
0.0
130
0.0
111
1.0
121
0.0
131
0.0
112
0.0
122
1.0
132
0.0
 79
     0
146
0.0
  0
ENDTAB
  0
TABLE
  2
LTYPE
  5
5
330
0
100
AcDbSymbolTable
 70
     5
  0
LTYPE
  5
14
330
5
100
AcDbSymbolTableRecord
100
AcDbLinetypeTableRecord
  2
ByBlock
 70
     0
  3

 72
    65
 73
     0
 40
0.0
  0
LTYPE
  5
15
330
5
100
AcDbSymbolTableRecord
100
AcDbLinetypeTableRecord
  2
ByLayer
 70
     0
  3

 72
    65
 73
     0
 40
0.0
  0
LTYPE
  5
16
330
5
100
AcDbSymbolTableRecord
100
AcDbLinetypeTableRecord
  2
Continuous
 70
     0
  3
Solid line
 72
    65
 73
     0
 40
0.0
  0
LTYPE
  5
2C1
330
5
100
AcDbSymbolTableRecord
100
AcDbLinetypeTableRecord
  2
LTYPE1
 70
     0
  3
HIDDEN
 72
    65
 73
     2
 40
5.0
 49
3.0
 74
     0
 49
-2.0
 74
     0
  0
LTYPE
  5
605
330
5
100
AcDbSymbolTableRecord
100
AcDbLinetypeTableRecord
  2
LTYPE2
 70
     0
  3
CENTER
 72
    65
 73
     4
 40
50.0
 49
35.0
 74
     0
 49
-5.0
 74
     0
 49
5.0
 74
     0
 49
-5.0
 74
     0
  0
ENDTAB
  0
TABLE
  2
LAYER
  5
2
330
0
100
AcDbSymbolTable
 70
   128
  0
LAYER
  5
10
330
2
100
AcDbSymbolTableRecord
100
AcDbLayerTableRecord
  2
0
 70
     0
 62
     7
  6
Continuous
290
     1
370
    -3
390
F
  0
LAYER
  5
2A
330
2
100
AcDbSymbolTableRecord
100
AcDbLayerTableRecord
  2
2
 70
     0
 62
     7
  6
Continuous
290
     1
370
    -3
390
F
  0
LAYER
  5
2B
330
2
100
AcDbSymbolTableRecord
100
AcDbLayerTableRecord
  2
3
 70
     0
 62
     7
  6
Continuous
290
     1
370
    -3
390
F
  0
LAYER
  5
2C
330
2
100
AcDbSymbolTableRecord
100
AcDbLayerTableRecord
  2
4
 70
     0
 62
     7
  6
Continuous
290
     1
370
    -3
390
F
  0
LAYER
  5
2D
330
2
100
AcDbSymbolTableRecord
100
AcDbLayerTableRecord
  2
5
 70
     0
 62
     7
  6
Continuous
290
     1
370
    -3
390
F
  0
LAYER
  5
2E
330
2
100
AcDbSymbolTableRecord
100
AcDbLayerTableRecord
  2
6
 70
     0
 62
     7
  6
Continuous
290
     1
370
    -3
390
F
  0
LAYER
  5
2F
330
2
100
AcDbSymbolTableRecord
100
AcDbLayerTableRecord
  2
7
 70
     0
 62
     7
  6
Continuous
290
     1
370
    -3
390
F
  0
LAYER
  5
30
330
2
100
AcDbSymbolTableRecord
100
AcDbLayerTableRecord
  2
8
 70
     0
 62
     7
  6
Continuous
290
     1
370
    -3
390
F
  0
LAYER
  5
31
330
2
100
AcDbSymbolTableRecord
100
AcDbLayerTableRecord
  2
9
 70
     0
 62
     7
  6
Continuous
290
     1
370
    -3
390
F
  0
LAYER
  5
32
330
2
100
AcDbSymbolTableRecord
100
AcDbLayerTableRecord
  2
10
 70
     0
 62
     7
  6
Continuous
290
     1
370
    -3
390
F
  0
LAYER
  5
33
330
2
100
AcDbSymbolTableRecord
100
AcDbLayerTableRecord
  2
11
 70
     0
 62
     7
  6
Continuous
290
     1
370
    -3
390
F
  0
LAYER
  5
34
330
2
100
AcDbSymbolTableRecord
100
AcDbLayerTableRecord
  2
12
 70
     0
 62
     7
  6
Continuous
290
     1
370
    -3
390
F
  0
LAYER
  5
35
330
2
100
AcDbSymbolTableRecord
100
AcDbLayerTableRecord
  2
13
 70
     0
 62
     7
  6
Continuous
290
     1
370
    -3
390
F
  0
LAYER
  5
36
330
2
100
AcDbSymbolTableRecord
100
AcDbLayerTableRecord
  2
14
 70
     0
 62
     7
  6
Continuous
290
     1
370
    -3
390
F
  0
LAYER
  5
37
330
2
100
AcDbSymbolTableRecord
100
AcDbLayerTableRecord
  2
15
 70
     0
 62
     7
  6
Continuous
290
     1
370
    -3
390
F
  0
LAYER
  5
38
330
2
100
AcDbSymbolTableRecord
100
AcDbLayerTableRecord
  2
16
 70
     0
 62
     7
  6
Continuous
290
     1
370
    -3
390
F
  0
LAYER
  5
39
330
2
100
AcDbSymbolTableRecord
100
AcDbLayerTableRecord
  2
17
 70
     0
 62
     7
  6
Continuous
290
     1
370
    -3
390
F
  0
LAYER
  5
3A
330
2
100
AcDbSymbolTableRecord
100
AcDbLayerTableRecord
  2
18
 70
     0
 62
     7
  6
Continuous
290
     1
370
    -3
390
F
  0
LAYER
  5
3B
330
2
100
AcDbSymbolTableRecord
100
AcDbLayerTableRecord
  2
19
 70
     0
 62
     7
  6
Continuous
290
     1
370
    -3
390
F
  0
LAYER
  5
3C
330
2
100
AcDbSymbolTableRecord
100
AcDbLayerTableRecord
  2
20
 70
     0
 62
     7
  6
Continuous
290
     1
370
    -3
390
F
  0
LAYER
  5
3D
330
2
100
AcDbSymbolTableRecord
100
AcDbLayerTableRecord
  2
21
 70
     0
 62
     7
  6
Continuous
290
     1
370
    -3
390
F
  0
LAYER
  5
3E
330
2
100
AcDbSymbolTableRecord
100
AcDbLayerTableRecord
  2
22
 70
     0
 62
     7
  6
Continuous
290
     1
370
    -3
390
F
  0
LAYER
  5
3F
330
2
100
AcDbSymbolTableRecord
100
AcDbLayerTableRecord
  2
23
 70
     0
 62
     7
  6
Continuous
290
     1
370
    -3
390
F
  0
LAYER
  5
40
330
2
100
AcDbSymbolTableRecord
100
AcDbLayerTableRecord
  2
24
 70
     0
 62
     7
  6
Continuous
290
     1
370
    -3
390
F
  0
LAYER
  5
41
330
2
100
AcDbSymbolTableRecord
100
AcDbLayerTableRecord
  2
25
 70
     0
 62
     7
  6
Continuous
290
     1
370
    -3
390
F
  0
LAYER
  5
42
330
2
100
AcDbSymbolTableRecord
100
AcDbLayerTableRecord
  2
26
 70
     0
 62
     7
  6
Continuous
290
     1
370
    -3
390
F
  0
LAYER
  5
43
330
2
100
AcDbSymbolTableRecord
100
AcDbLayerTableRecord
  2
27
 70
     0
 62
     7
  6
Continuous
290
     1
370
    -3
390
F
  0
LAYER
  5
44
330
2
100
AcDbSymbolTableRecord
100
AcDbLayerTableRecord
  2
28
 70
     0
 62
     7
  6
Continuous
290
     1
370
    -3
390
F
  0
LAYER
  5
45
330
2
100
AcDbSymbolTableRecord
100
AcDbLayerTableRecord
  2
29
 70
     0
 62
     7
  6
Continuous
290
     1
370
    -3
390
F
  0
LAYER
  5
46
330
2
100
AcDbSymbolTableRecord
100
AcDbLayerTableRecord
  2
30
 70
     0
 62
     7
  6
Continuous
290
     1
370
    -3
390
F
  0
LAYER
  5
47
330
2
100
AcDbSymbolTableRecord
100
AcDbLayerTableRecord
  2
31
 70
     0
 62
     7
  6
Continuous
290
     1
370
    -3
390
F
  0
LAYER
  5
48
330
2
100
AcDbSymbolTableRecord
100
AcDbLayerTableRecord
  2
32
 70
     0
 62
     7
  6
Continuous
290
     1
370
    -3
390
F
  0
LAYER
  5
49
330
2
100
AcDbSymbolTableRecord
100
AcDbLayerTableRecord
  2
33
 70
     0
 62
     7
  6
Continuous
290
     1
370
    -3
390
F
  0
LAYER
  5
4A
330
2
100
AcDbSymbolTableRecord
100
AcDbLayerTableRecord
  2
34
 70
     0
 62
     7
  6
Continuous
290
     1
370
    -3
390
F
  0
LAYER
  5
4B
330
2
100
AcDbSymbolTableRecord
100
AcDbLayerTableRecord
  2
35
 70
     0
 62
     7
  6
Continuous
290
     1
370
    -3
390
F
  0
LAYER
  5
4C
330
2
100
AcDbSymbolTableRecord
100
AcDbLayerTableRecord
  2
36
 70
     0
 62
     7
  6
Continuous
290
     1
370
    -3
390
F
  0
LAYER
  5
4D
330
2
100
AcDbSymbolTableRecord
100
AcDbLayerTableRecord
  2
37
 70
     0
 62
     7
  6
Continuous
290
     1
370
    -3
390
F
  0
LAYER
  5
4E
330
2
100
AcDbSymbolTableRecord
100
AcDbLayerTableRecord
  2
38
 70
     0
 62
     7
  6
Continuous
290
     1
370
    -3
390
F
  0
LAYER
  5
4F
330
2
100
AcDbSymbolTableRecord
100
AcDbLayerTableRecord
  2
39
 70
     0
 62
     7
  6
Continuous
290
     1
370
    -3
390
F
  0
LAYER
  5
50
330
2
100
AcDbSymbolTableRecord
100
AcDbLayerTableRecord
  2
40
 70
     0
 62
     7
  6
Continuous
290
     1
370
    -3
390
F
  0
LAYER
  5
51
330
2
100
AcDbSymbolTableRecord
100
AcDbLayerTableRecord
  2
41
 70
     0
 62
     7
  6
Continuous
290
     1
370
    -3
390
F
  0
LAYER
  5
52
330
2
100
AcDbSymbolTableRecord
100
AcDbLayerTableRecord
  2
42
 70
     0
 62
     7
  6
Continuous
290
     1
370
    -3
390
F
  0
LAYER
  5
53
330
2
100
AcDbSymbolTableRecord
100
AcDbLayerTableRecord
  2
43
 70
     0
 62
     7
  6
Continuous
290
     1
370
    -3
390
F
  0
LAYER
  5
54
330
2
100
AcDbSymbolTableRecord
100
AcDbLayerTableRecord
  2
44
 70
     0
 62
     7
  6
Continuous
290
     1
370
    -3
390
F
  0
LAYER
  5
55
330
2
100
AcDbSymbolTableRecord
100
AcDbLayerTableRecord
  2
45
 70
     0
 62
     7
  6
Continuous
290
     1
370
    -3
390
F
  0
LAYER
  5
56
330
2
100
AcDbSymbolTableRecord
100
AcDbLayerTableRecord
  2
46
 70
     0
 62
     7
  6
Continuous
290
     1
370
    -3
390
F
  0
LAYER
  5
57
330
2
100
AcDbSymbolTableRecord
100
AcDbLayerTableRecord
  2
47
 70
     0
 62
     7
  6
Continuous
290
     1
370
    -3
390
F
  0
LAYER
  5
58
330
2
100
AcDbSymbolTableRecord
100
AcDbLayerTableRecord
  2
48
 70
     0
 62
     7
  6
Continuous
290
     1
370
    -3
390
F
  0
LAYER
  5
59
330
2
100
AcDbSymbolTableRecord
100
AcDbLayerTableRecord
  2
49
 70
     0
 62
     7
  6
Continuous
290
     1
370
    -3
390
F
  0
LAYER
  5
5A
330
2
100
AcDbSymbolTableRecord
100
AcDbLayerTableRecord
  2
50
 70
     0
 62
     7
  6
Continuous
290
     1
370
    -3
390
F
  0
LAYER
  5
5B
330
2
100
AcDbSymbolTableRecord
100
AcDbLayerTableRecord
  2
51
 70
     0
 62
     7
  6
Continuous
290
     1
370
    -3
390
F
  0
LAYER
  5
5C
330
2
100
AcDbSymbolTableRecord
100
AcDbLayerTableRecord
  2
52
 70
     0
 62
     7
  6
Continuous
290
     1
370
    -3
390
F
  0
LAYER
  5
5D
330
2
100
AcDbSymbolTableRecord
100
AcDbLayerTableRecord
  2
53
 70
     0
 62
     7
  6
Continuous
290
     1
370
    -3
390
F
  0
LAYER
  5
5E
330
2
100
AcDbSymbolTableRecord
100
AcDbLayerTableRecord
  2
54
 70
     0
 62
     7
  6
Continuous
290
     1
370
    -3
390
F
  0
LAYER
  5
5F
330
2
100
AcDbSymbolTableRecord
100
AcDbLayerTableRecord
  2
55
 70
     0
 62
     7
  6
Continuous
290
     1
370
    -3
390
F
  0
LAYER
  5
60
330
2
100
AcDbSymbolTableRecord
100
AcDbLayerTableRecord
  2
56
 70
     0
 62
     7
  6
Continuous
290
     1
370
    -3
390
F
  0
LAYER
  5
61
330
2
100
AcDbSymbolTableRecord
100
AcDbLayerTableRecord
  2
57
 70
     0
 62
     7
  6
Continuous
290
     1
370
    -3
390
F
  0
LAYER
  5
62
330
2
100
AcDbSymbolTableRecord
100
AcDbLayerTableRecord
  2
58
 70
     0
 62
     7
  6
Continuous
290
     1
370
    -3
390
F
  0
LAYER
  5
63
330
2
100
AcDbSymbolTableRecord
100
AcDbLayerTableRecord
  2
59
 70
     0
 62
     7
  6
Continuous
290
     1
370
    -3
390
F
  0
LAYER
  5
64
330
2
100
AcDbSymbolTableRecord
100
AcDbLayerTableRecord
  2
60
 70
     0
 62
     7
  6
Continuous
290
     1
370
    -3
390
F
  0
LAYER
  5
65
330
2
100
AcDbSymbolTableRecord
100
AcDbLayerTableRecord
  2
61
 70
     0
 62
     7
  6
Continuous
290
     1
370
    -3
390
F
  0
LAYER
  5
66
330
2
100
AcDbSymbolTableRecord
100
AcDbLayerTableRecord
  2
62
 70
     0
 62
     7
  6
Continuous
290
     1
370
    -3
390
F
  0
LAYER
  5
67
330
2
100
AcDbSymbolTableRecord
100
AcDbLayerTableRecord
  2
63
 70
     0
 62
     7
  6
Continuous
290
     1
370
    -3
390
F
  0
LAYER
  5
68
330
2
100
AcDbSymbolTableRecord
100
AcDbLayerTableRecord
  2
64
 70
     0
 62
     7
  6
Continuous
290
     1
370
    -3
390
F
  0
LAYER
  5
69
330
2
100
AcDbSymbolTableRecord
100
AcDbLayerTableRecord
  2
65
 70
     0
 62
     7
  6
Continuous
290
     1
370
    -3
390
F
  0
LAYER
  5
6A
330
2
100
AcDbSymbolTableRecord
100
AcDbLayerTableRecord
  2
66
 70
     0
 62
     7
  6
Continuous
290
     1
370
    -3
390
F
  0
LAYER
  5
6B
330
2
100
AcDbSymbolTableRecord
100
AcDbLayerTableRecord
  2
67
 70
     0
 62
     7
  6
Continuous
290
     1
370
    -3
390
F
  0
LAYER
  5
6C
330
2
100
AcDbSymbolTableRecord
100
AcDbLayerTableRecord
  2
68
 70
     0
 62
     7
  6
Continuous
290
     1
370
    -3
390
F
  0
LAYER
  5
6D
330
2
100
AcDbSymbolTableRecord
100
AcDbLayerTableRecord
  2
69
 70
     0
 62
     7
  6
Continuous
290
     1
370
    -3
390
F
  0
LAYER
  5
6E
330
2
100
AcDbSymbolTableRecord
100
AcDbLayerTableRecord
  2
70
 70
     0
 62
     7
  6
Continuous
290
     1
370
    -3
390
F
  0
LAYER
  5
6F
330
2
100
AcDbSymbolTableRecord
100
AcDbLayerTableRecord
  2
71
 70
     0
 62
     7
  6
Continuous
290
     1
370
    -3
390
F
  0
LAYER
  5
70
330
2
100
AcDbSymbolTableRecord
100
AcDbLayerTableRecord
  2
72
 70
     0
 62
     7
  6
Continuous
290
     1
370
    -3
390
F
  0
LAYER
  5
71
330
2
100
AcDbSymbolTableRecord
100
AcDbLayerTableRecord
  2
73
 70
     0
 62
     7
  6
Continuous
290
     1
370
    -3
390
F
  0
LAYER
  5
72
330
2
100
AcDbSymbolTableRecord
100
AcDbLayerTableRecord
  2
74
 70
     0
 62
     7
  6
Continuous
290
     1
370
    -3
390
F
  0
LAYER
  5
73
330
2
100
AcDbSymbolTableRecord
100
AcDbLayerTableRecord
  2
75
 70
     0
 62
     7
  6
Continuous
290
     1
370
    -3
390
F
  0
LAYER
  5
74
330
2
100
AcDbSymbolTableRecord
100
AcDbLayerTableRecord
  2
76
 70
     0
 62
     7
  6
Continuous
290
     1
370
    -3
390
F
  0
LAYER
  5
75
330
2
100
AcDbSymbolTableRecord
100
AcDbLayerTableRecord
  2
77
 70
     0
 62
     7
  6
Continuous
290
     1
370
    -3
390
F
  0
LAYER
  5
76
330
2
100
AcDbSymbolTableRecord
100
AcDbLayerTableRecord
  2
78
 70
     0
 62
     7
  6
Continuous
290
     1
370
    -3
390
F
  0
LAYER
  5
77
330
2
100
AcDbSymbolTableRecord
100
AcDbLayerTableRecord
  2
79
 70
     0
 62
     7
  6
Continuous
290
     1
370
    -3
390
F
  0
LAYER
  5
78
330
2
100
AcDbSymbolTableRecord
100
AcDbLayerTableRecord
  2
80
 70
     0
 62
     7
  6
Continuous
290
     1
370
    -3
390
F
  0
LAYER
  5
79
330
2
100
AcDbSymbolTableRecord
100
AcDbLayerTableRecord
  2
81
 70
     0
 62
     7
  6
Continuous
290
     1
370
    -3
390
F
  0
LAYER
  5
7A
330
2
100
AcDbSymbolTableRecord
100
AcDbLayerTableRecord
  2
82
 70
     0
 62
     7
  6
Continuous
290
     1
370
    -3
390
F
  0
LAYER
  5
7B
330
2
100
AcDbSymbolTableRecord
100
AcDbLayerTableRecord
  2
83
 70
     0
 62
     7
  6
Continuous
290
     1
370
    -3
390
F
  0
LAYER
  5
7C
330
2
100
AcDbSymbolTableRecord
100
AcDbLayerTableRecord
  2
84
 70
     0
 62
     7
  6
Continuous
290
     1
370
    -3
390
F
  0
LAYER
  5
7D
330
2
100
AcDbSymbolTableRecord
100
AcDbLayerTableRecord
  2
85
 70
     0
 62
     7
  6
Continuous
290
     1
370
    -3
390
F
  0
LAYER
  5
7E
330
2
100
AcDbSymbolTableRecord
100
AcDbLayerTableRecord
  2
86
 70
     0
 62
     7
  6
Continuous
290
     1
370
    -3
390
F
  0
LAYER
  5
7F
330
2
100
AcDbSymbolTableRecord
100
AcDbLayerTableRecord
  2
87
 70
     0
 62
     7
  6
Continuous
290
     1
370
    -3
390
F
  0
LAYER
  5
80
330
2
100
AcDbSymbolTableRecord
100
AcDbLayerTableRecord
  2
88
 70
     0
 62
     7
  6
Continuous
290
     1
370
    -3
390
F
  0
LAYER
  5
81
330
2
100
AcDbSymbolTableRecord
100
AcDbLayerTableRecord
  2
89
 70
     0
 62
     7
  6
Continuous
290
     1
370
    -3
390
F
  0
LAYER
  5
82
330
2
100
AcDbSymbolTableRecord
100
AcDbLayerTableRecord
  2
90
 70
     0
 62
     7
  6
Continuous
290
     1
370
    -3
390
F
  0
LAYER
  5
83
330
2
100
AcDbSymbolTableRecord
100
AcDbLayerTableRecord
  2
91
 70
     0
 62
     7
  6
Continuous
290
     1
370
    -3
390
F
  0
LAYER
  5
84
330
2
100
AcDbSymbolTableRecord
100
AcDbLayerTableRecord
  2
92
 70
     0
 62
     7
  6
Continuous
290
     1
370
    -3
390
F
  0
LAYER
  5
85
330
2
100
AcDbSymbolTableRecord
100
AcDbLayerTableRecord
  2
93
 70
     0
 62
     7
  6
Continuous
290
     1
370
    -3
390
F
  0
LAYER
  5
86
330
2
100
AcDbSymbolTableRecord
100
AcDbLayerTableRecord
  2
94
 70
     0
 62
     7
  6
Continuous
290
     1
370
    -3
390
F
  0
LAYER
  5
87
330
2
100
AcDbSymbolTableRecord
100
AcDbLayerTableRecord
  2
95
 70
     0
 62
     7
  6
Continuous
290
     1
370
    -3
390
F
  0
LAYER
  5
88
330
2
100
AcDbSymbolTableRecord
100
AcDbLayerTableRecord
  2
96
 70
     0
 62
     7
  6
Continuous
290
     1
370
    -3
390
F
  0
LAYER
  5
89
330
2
100
AcDbSymbolTableRecord
100
AcDbLayerTableRecord
  2
97
 70
     0
 62
     7
  6
Continuous
290
     1
370
    -3
390
F
  0
LAYER
  5
8A
330
2
100
AcDbSymbolTableRecord
100
AcDbLayerTableRecord
  2
98
 70
     0
 62
     7
  6
Continuous
290
     1
370
    -3
390
F
  0
LAYER
  5
8B
330
2
100
AcDbSymbolTableRecord
100
AcDbLayerTableRecord
  2
99
 70
     0
 62
     7
  6
Continuous
290
     1
370
    -3
390
F
  0
LAYER
  5
8C
330
2
100
AcDbSymbolTableRecord
100
AcDbLayerTableRecord
  2
100
 70
     0
 62
     7
  6
Continuous
290
     1
370
    -3
390
F
  0
LAYER
  5
8D
330
2
100
AcDbSymbolTableRecord
100
AcDbLayerTableRecord
  2
101
 70
     0
 62
     7
  6
Continuous
290
     1
370
    -3
390
F
  0
LAYER
  5
8E
330
2
100
AcDbSymbolTableRecord
100
AcDbLayerTableRecord
  2
102
 70
     0
 62
     7
  6
Continuous
290
     1
370
    -3
390
F
  0
LAYER
  5
8F
330
2
100
AcDbSymbolTableRecord
100
AcDbLayerTableRecord
  2
103
 70
     0
 62
     7
  6
Continuous
290
     1
370
    -3
390
F
  0
LAYER
  5
90
330
2
100
AcDbSymbolTableRecord
100
AcDbLayerTableRecord
  2
104
 70
     0
 62
     7
  6
Continuous
290
     1
370
    -3
390
F
  0
LAYER
  5
91
330
2
100
AcDbSymbolTableRecord
100
AcDbLayerTableRecord
  2
105
 70
     0
 62
     7
  6
Continuous
290
     1
370
    -3
390
F
  0
LAYER
  5
92
330
2
100
AcDbSymbolTableRecord
100
AcDbLayerTableRecord
  2
106
 70
     0
 62
     7
  6
Continuous
290
     1
370
    -3
390
F
  0
LAYER
  5
93
330
2
100
AcDbSymbolTableRecord
100
AcDbLayerTableRecord
  2
107
 70
     0
 62
     7
  6
Continuous
290
     1
370
    -3
390
F
  0
LAYER
  5
94
330
2
100
AcDbSymbolTableRecord
100
AcDbLayerTableRecord
  2
108
 70
     0
 62
     7
  6
Continuous
290
     1
370
    -3
390
F
  0
LAYER
  5
95
330
2
100
AcDbSymbolTableRecord
100
AcDbLayerTableRecord
  2
109
 70
     0
 62
     7
  6
Continuous
290
     1
370
    -3
390
F
  0
LAYER
  5
96
330
2
100
AcDbSymbolTableRecord
100
AcDbLayerTableRecord
  2
110
 70
     0
 62
     7
  6
Continuous
290
     1
370
    -3
390
F
  0
LAYER
  5
97
330
2
100
AcDbSymbolTableRecord
100
AcDbLayerTableRecord
  2
111
 70
     0
 62
     7
  6
Continuous
290
     1
370
    -3
390
F
  0
LAYER
  5
98
330
2
100
AcDbSymbolTableRecord
100
AcDbLayerTableRecord
  2
112
 70
     0
 62
     7
  6
Continuous
290
     1
370
    -3
390
F
  0
LAYER
  5
99
330
2
100
AcDbSymbolTableRecord
100
AcDbLayerTableRecord
  2
113
 70
     0
 62
     7
  6
Continuous
290
     1
370
    -3
390
F
  0
LAYER
  5
9A
330
2
100
AcDbSymbolTableRecord
100
AcDbLayerTableRecord
  2
114
 70
     0
 62
     7
  6
Continuous
290
     1
370
    -3
390
F
  0
LAYER
  5
9B
330
2
100
AcDbSymbolTableRecord
100
AcDbLayerTableRecord
  2
115
 70
     0
 62
     7
  6
Continuous
290
     1
370
    -3
390
F
  0
LAYER
  5
9C
330
2
100
AcDbSymbolTableRecord
100
AcDbLayerTableRecord
  2
116
 70
     0
 62
     7
  6
Continuous
290
     1
370
    -3
390
F
  0
LAYER
  5
9D
330
2
100
AcDbSymbolTableRecord
100
AcDbLayerTableRecord
  2
117
 70
     0
 62
     7
  6
Continuous
290
     1
370
    -3
390
F
  0
LAYER
  5
9E
330
2
100
AcDbSymbolTableRecord
100
AcDbLayerTableRecord
  2
118
 70
     0
 62
     7
  6
Continuous
290
     1
370
    -3
390
F
  0
LAYER
  5
9F
330
2
100
AcDbSymbolTableRecord
100
AcDbLayerTableRecord
  2
119
 70
     0
 62
     7
  6
Continuous
290
     1
370
    -3
390
F
  0
LAYER
  5
A0
330
2
100
AcDbSymbolTableRecord
100
AcDbLayerTableRecord
  2
120
 70
     0
 62
     7
  6
Continuous
290
     1
370
    -3
390
F
  0
LAYER
  5
A1
330
2
100
AcDbSymbolTableRecord
100
AcDbLayerTableRecord
  2
121
 70
     0
 62
     7
  6
Continuous
290
     1
370
    -3
390
F
  0
LAYER
  5
A2
330
2
100
AcDbSymbolTableRecord
100
AcDbLayerTableRecord
  2
122
 70
     0
 62
     7
  6
Continuous
290
     1
370
    -3
390
F
  0
LAYER
  5
A3
330
2
100
AcDbSymbolTableRecord
100
AcDbLayerTableRecord
  2
123
 70
     0
 62
     7
  6
Continuous
290
     1
370
    -3
390
F
  0
LAYER
  5
A4
330
2
100
AcDbSymbolTableRecord
100
AcDbLayerTableRecord
  2
124
 70
     0
 62
     7
  6
Continuous
290
     1
370
    -3
390
F
  0
LAYER
  5
A5
330
2
100
AcDbSymbolTableRecord
100
AcDbLayerTableRecord
  2
125
 70
     0
 62
     7
  6
Continuous
290
     1
370
    -3
390
F
  0
LAYER
  5
A6
330
2
100
AcDbSymbolTableRecord
100
AcDbLayerTableRecord
  2
126
 70
     0
 62
     7
  6
Continuous
290
     1
370
    -3
390
F
  0
LAYER
  5
A7
330
2
100
AcDbSymbolTableRecord
100
AcDbLayerTableRecord
  2
127
 70
     0
 62
     7
  6
Continuous
290
     1
370
    -3
390
F
  0
LAYER
  5
A8
330
2
100
AcDbSymbolTableRecord
100
AcDbLayerTableRecord
  2
128
 70
     0
 62
     7
  6
Continuous
290
     1
370
    -3
390
F
  0
ENDTAB
  0
TABLE
  2
STYLE
  5
3
330
0
100
AcDbSymbolTable
 70
    12
  0
STYLE
  5
11
330
3
100
AcDbSymbolTableRecord
100
AcDbTextStyleTableRecord
  2
Standard
 70
     0
 40
0.0
 41
1.0
 50
0.0
 71
     0
 42
2.5
  3
txt
  4
extfont.shx
  0
STYLE
  5
327
330
3
100
AcDbSymbolTableRecord
100
AcDbTextStyleTableRecord
  2
KANJI0
 70
     0
 40
4.0
 41
0.9375
 50
0.0
 71
     0
 42
4.0
  3
txt.shx
  4
extfont.shx
  0
STYLE
  5
32E
330
3
100
AcDbSymbolTableRecord
100
AcDbTextStyleTableRecord
  2
KANJI1
 70
     0
 40
6.0
 41
0.625
 50
0.0
 71
     0
 42
6.0
  3
txt.shx
  4
extfont.shx
  0
STYLE
  5
331
330
3
100
AcDbSymbolTableRecord
100
AcDbTextStyleTableRecord
  2
KANJI2
 70
     0
 40
3.0
 41
1.0
 50
0.0
 71
     0
 42
3.0
  3
txt.shx
  4
extfont.shx
  0
STYLE
  5
54D
330
3
100
AcDbSymbolTableRecord
100
AcDbTextStyleTableRecord
  2
KANJI3
 70
     0
 40
5.0
 41
1.0
 50
0.0
 71
     0
 42
5.0
  3
txt.shx
  4
extfont.shx
  0
STYLE
  5
554
330
3
100
AcDbSymbolTableRecord
100
AcDbTextStyleTableRecord
  2
KANJI4
 70
     0
 40
4.0
 41
0.625
 50
0.0
 71
     0
 42
4.0
  3
txt.shx
  4
extfont.shx
  0
STYLE
  5
56C
330
3
100
AcDbSymbolTableRecord
100
AcDbTextStyleTableRecord
  2
KANJI5
 70
     0
 40
3.0
 41
1.0
 50
0.0
 71
     0
 42
3.0
  3
txt.shx
  4
extfont.shx
  0
STYLE
  5
580
330
3
100
AcDbSymbolTableRecord
100
AcDbTextStyleTableRecord
  2
KANJI6
 70
     0
 40
15.0
 41
0.933333333
 50
15.0
 71
     0
 42
15.0
  3
txt.shx
  4
extfont.shx
  0
STYLE
  5
601
330
3
100
AcDbSymbolTableRecord
100
AcDbTextStyleTableRecord
  2
KANJI7
 70
     0
 40
15.0
 41
0.9
 50
0.0
 71
     0
 42
15.0
  3
txt.shx
  4
extfont.shx
  0
STYLE
  5
603
330
3
100
AcDbSymbolTableRecord
100
AcDbTextStyleTableRecord
  2
KANJI8
 70
     0
 40
15.0
 41
0.933333333
 50
0.0
 71
     0
 42
15.0
  3
txt.shx
  4
extfont.shx
  0
STYLE
  5
61B
330
3
100
AcDbSymbolTableRecord
100
AcDbTextStyleTableRecord
  2
KANJI9
 70
     0
 40
17.5
 41
0.5
 50
0.0
 71
     0
 42
17.5
  3
txt.shx
  4
extfont.shx
  0
STYLE
  5
620
330
3
100
AcDbSymbolTableRecord
100
AcDbTextStyleTableRecord
  2
KANJI10
 70
     0
 40
15.0
 41
0.933333333
 50
0.0
 71
     0
 42
15.0
  3
txt.shx
  4
extfont.shx
  0
ENDTAB
  0
TABLE
  2
VIEW
  5
6
330
0
100
AcDbSymbolTable
 70
     0
  0
ENDTAB
  0
TABLE
  2
UCS
  5
7
330
0
100
AcDbSymbolTable
 70
     0
  0
ENDTAB
  0
TABLE
  2
APPID
  5
9
330
0
100
AcDbSymbolTable
 70
     1
  0
APPID
  5
12
330
9
100
AcDbSymbolTableRecord
100
AcDbRegAppTableRecord
  2
ACAD
 70
     0
  0
ENDTAB
  0
TABLE
  2
DIMSTYLE
  5
A
330
0
100
AcDbSymbolTable
 70
     1
100
AcDbDimStyleTable
 71
     0
  0
DIMSTYLE
105
27
330
A
100
AcDbSymbolTableRecord
100
AcDbDimStyleTableRecord
  2
ISO-25
 70
     0
  3

  4

 40
1.0
 41
2.5
 42
0.625
 43
3.75
 44
1.25
 45
0.0
 46
0.0
 47
0.0
 48
0.0
 71
     0
 72
     0
 73
     0
 74
     0
 75
     0
 76
     0
 77
     1
 78
     8
 79
     0
140
2.5
141
2.5
142
0.0
143
0.039370079
144
1.0
145
0.0
146
1.0
147
0.625
148
0.0
170
     0
171
     3
172
     1
173
     0
174
     0
175
     0
176
     0
177
     0
178
     0
179
     0
270
     2
271
     2
272
     2
273
     2
274
     3
275
     0
276
     0
277
     2
278
    46
279
     0
280
     0
281
     0
282
     0
283
     1
284
     8
285
     0
286
     0
288
     0
289
     0
340
11
341
0
342
0
343
0
344
0
371
    -2
372
    -2
  0
ENDTAB
  0
TABLE
  2
BLOCK_RECORD
  5
1
330
0
100
AcDbSymbolTable
 70
     3
  0
BLOCK_RECORD
  5
1F
330
1
100
AcDbSymbolTableRecord
100
AcDbBlockTableRecord
  2
*Model_Space
340
22
  0
BLOCK_RECORD
  5
1B
330
1
100
AcDbSymbolTableRecord
100
AcDbBlockTableRecord
  2
*Paper_Space
340
1E
  0
BLOCK_RECORD
  5
23
330
1
100
AcDbSymbolTableRecord
100
AcDbBlockTableRecord
  2
*Paper_Space0
340
26
  0
ENDTAB
  0
ENDSEC
  0
SECTION
  2
BLOCKS
  0
BLOCK
  5
1C
330
1B
100
AcDbEntity
 67
     1
  8
0
100
AcDbBlockBegin
  2
*Paper_Space
 70
     0
 10
0.0
 20
0.0
 30
0.0
  3
*Paper_Space
  1

  0
ENDBLK
  5
1D
330
1B
100
AcDbEntity
  8
0
100
AcDbBlockEnd
  0
BLOCK
  5
20
330
1F
100
AcDbEntity
  8
0
100
AcDbBlockBegin
  2
*Model_Space
 70
     0
 10
0.0
 20
0.0
 30
0.0
  3
*Model_Space
  1

  0
ENDBLK
  5
21
330
1F
100
AcDbEntity
  8
0
100
AcDbBlockEnd
  0
BLOCK
  5
24
330
23
100
AcDbEntity
 67
     1
  8
0
100
AcDbBlockBegin
  2
*Paper_Space0
 70
     0
 10
0.0
 20
0.0
 30
0.0
  3
*Paper_Space0
  1

  0
ENDBLK
  5
25
330
23
100
AcDbEntity
  8
0
100
AcDbBlockEnd
  0
ENDSEC
  0
SECTION
  2
ENTITIES
  0
LINE
  5
A9
330
1F
100
AcDbEntity
  8
0
  6
Continuous
 62
     2
100
AcDbLine
 10
741.94
 20
530.27
 30
0.0
 11
751.94
 21
530.27
 31
0.0
  0
LINE
  5
AA
330
1F
100
AcDbEntity
  8
0
  6
Continuous
 62
     2
100
AcDbLine
 10
751.94
 20
537.27
 30
0.0
 11
741.94
 21
537.27
 31
0.0
  0
ARC
  5
AB
330
1F
100
AcDbEntity
  8
0
  6
Continuous
 62
     2
100
AcDbCircle
 10
741.94
 20
533.77
 30
0.0
 40
3.5
100
AcDbArc
 50
90.0
 51
270.0
  0
LINE
  5
AC
330
1F
100
AcDbEntity
  8
0
  6
Continuous
 62
     2
100
AcDbLine
 10
741.94
 20
430.27
 30
0.0
 11
751.94
 21
430.27
 31
0.0
  0
LINE
  5
AD
330
1F
100
AcDbEntity
  8
0
  6
Continuous
 62
     2
100
AcDbLine
 10
751.94
 20
437.27
 30
0.0
 11
741.94
 21
437.27
 31
0.0
  0
ARC
  5
AE
330
1F
100
AcDbEntity
  8
0
  6
Continuous
 62
     2
100
AcDbCircle
 10
741.94
 20
433.77
 30
0.0
 40
3.5
100
AcDbArc
 50
90.0
 51
270.0
  0
LINE
  5
AF
330
1F
100
AcDbEntity
  8
0
  6
Continuous
 62
     2
100
AcDbLine
 10
281.94
 20
530.27
 30
0.0
 11
271.94
 21
530.27
 31
0.0
  0
LINE
  5
B0
330
1F
100
AcDbEntity
  8
0
  6
Continuous
 62
     2
100
AcDbLine
 10
271.94
 20
537.27
 30
0.0
 11
281.94
 21
537.27
 31
0.0
  0
ARC
  5
B1
330
1F
100
AcDbEntity
  8
0
  6
Continuous
 62
     2
100
AcDbCircle
 10
281.94
 20
533.77
 30
0.0
 40
3.5
100
AcDbArc
 50
270.0
 51
90.0
  0
LINE
  5
B2
330
1F
100
AcDbEntity
  8
0
  6
Continuous
 62
     2
100
AcDbLine
 10
281.94
 20
430.27
 30
0.0
 11
271.94
 21
430.27
 31
0.0
  0
LINE
  5
B3
330
1F
100
AcDbEntity
  8
0
  6
Continuous
 62
     2
100
AcDbLine
 10
271.94
 20
437.27
 30
0.0
 11
281.94
 21
437.27
 31
0.0
  0
ARC
  5
B4
330
1F
100
AcDbEntity
  8
0
  6
Continuous
 62
     2
100
AcDbCircle
 10
281.94
 20
433.77
 30
0.0
 40
3.5
100
AcDbArc
 50
270.0
 51
90.0
  0
LINE
  5
B5
330
1F
100
AcDbEntity
  8
0
  6
Continuous
 62
     2
100
AcDbLine
 10
751.94
 20
437.27
 30
0.0
 11
751.94
 21
530.27
 31
0.0
  0
LINE
  5
B6
330
1F
100
AcDbEntity
  8
0
  6
Continuous
 62
     2
100
AcDbLine
 10
271.94
 20
530.27
 30
0.0
 11
271.94
 21
437.27
 31
0.0
  0
ARC
  5
B7
330
1F
100
AcDbEntity
  8
0
  6
Continuous
 62
     1
100
AcDbCircle
 10
713.94
 20
533.77
 30
0.0
 40
4.0
100
AcDbArc
 50
0.0
 51
180.0
  0
ARC
  5
B8
330
1F
100
AcDbEntity
  8
0
  6
Continuous
 62
     1
100
AcDbCircle
 10
713.94
 20
433.77
 30
0.0
 40
4.0
100
AcDbArc
 50
180.0
 51
0.0
  0
LINE
  5
B9
330
1F
100
AcDbEntity
  8
0
  6
Continuous
 62
     1
100
AcDbLine
 10
717.94
 20
433.77
 30
0.0
 11
717.94
 21
533.77
 31
0.0
  0
LINE
  5
BA
330
1F
100
AcDbEntity
  8
0
  6
Continuous
 62
     1
100
AcDbLine
 10
709.94
 20
533.77
 30
0.0
 11
709.94
 21
433.77
 31
0.0
  0
ARC
  5
BB
330
1F
100
AcDbEntity
  8
0
  6
Continuous
 62
     1
100
AcDbCircle
 10
309.94
 20
533.77
 30
0.0
 40
4.0
100
AcDbArc
 50
0.0
 51
180.0
  0
ARC
  5
BC
330
1F
100
AcDbEntity
  8
0
  6
Continuous
 62
     1
100
AcDbCircle
 10
309.94
 20
433.77
 30
0.0
 40
4.0
100
AcDbArc
 50
180.0
 51
0.0
  0
LINE
  5
BD
330
1F
100
AcDbEntity
  8
0
  6
Continuous
 62
     1
100
AcDbLine
 10
305.94
 20
433.77
 30
0.0
 11
305.94
 21
533.77
 31
0.0
  0
LINE
  5
BE
330
1F
100
AcDbEntity
  8
0
  6
Continuous
 62
     1
100
AcDbLine
 10
313.94
 20
533.77
 30
0.0
 11
313.94
 21
433.77
 31
0.0
  0
ARC
  5
BF
330
1F
100
AcDbEntity
  8
0
  6
Continuous
 62
     1
100
AcDbCircle
 10
690.44
 20
543.77
 30
0.0
 40
2.0
100
AcDbArc
 50
270.0
 51
90.0
  0
ARC
  5
C0
330
1F
100
AcDbEntity
  8
0
  6
Continuous
 62
     1
100
AcDbCircle
 10
653.44
 20
543.77
 30
0.0
 40
2.0
100
AcDbArc
 50
90.0
 51
270.0
  0
LINE
  5
C1
330
1F
100
AcDbEntity
  8
0
  6
Continuous
 62
     1
100
AcDbLine
 10
653.44
 20
541.77
 30
0.0
 11
690.44
 21
541.77
 31
0.0
  0
LINE
  5
C2
330
1F
100
AcDbEntity
  8
0
  6
Continuous
 62
     1
100
AcDbLine
 10
690.44
 20
545.77
 30
0.0
 11
653.44
 21
545.77
 31
0.0
  0
ARC
  5
C3
330
1F
100
AcDbEntity
  8
0
  6
Continuous
 62
     2
100
AcDbCircle
 10
281.94
 20
433.77
 30
0.0
 40
3.5
100
AcDbArc
 50
270.0
 51
90.0
  0
LINE
  5
C4
330
1F
100
AcDbEntity
  8
0
  6
Continuous
 62
     2
100
AcDbLine
 10
281.94
 20
437.27
 30
0.0
 11
271.94
 21
437.27
 31
0.0
  0
LWPOLYLINE
  5
C7
330
1F
100
AcDbEntity
  8
0
  6
Continuous
 62
     2
100
AcDbPolyline
 90
     4
 70
   128
 43
0.0
 10
751.94
 20
437.27
 42
0.0
 10
741.94
 20
437.27
 42
1.0
 10
741.94
 20
430.27
 42
0.0
 10
751.94
 20
430.27
 42
0.0
  0
LINE
  5
C8
330
1F
100
AcDbEntity
  8
0
  6
Continuous
 62
     2
100
AcDbLine
 10
271.94
 20
430.27
 30
0.0
 11
281.94
 21
430.27
 31
0.0
  0
LINE
  5
C9
330
1F
100
AcDbEntity
  8
0
  6
Continuous
 62
     2
100
AcDbLine
 10
751.94
 20
411.27
 30
0.0
 11
751.94
 21
430.27
 31
0.0
  0
ARC
  5
CA
330
1F
100
AcDbEntity
  8
2
  6
Continuous
 62
     2
100
AcDbCircle
 10
749.94
 20
411.27
 30
0.0
 40
2.0
100
AcDbArc
 50
270.0
 51
0.0
  0
LINE
  5
CB
330
1F
100
AcDbEntity
  8
0
  6
Continuous
 62
     2
100
AcDbLine
 10
271.94
 20
430.27
 30
0.0
 11
271.94
 21
411.27
 31
0.0
  0
LINE
  5
CC
330
1F
100
AcDbEntity
  8
0
  6
Continuous
 62
     2
100
AcDbLine
 10
273.94
 20
409.27
 30
0.0
 11
749.94
 21
409.27
 31
0.0
  0
ARC
  5
CD
330
1F
100
AcDbEntity
  8
2
  6
Continuous
 62
     2
100
AcDbCircle
 10
273.94
 20
411.27
 30
0.0
 40
2.0
100
AcDbArc
 50
180.0
 51
270.0
  0
CIRCLE
  5
CE
330
1F
100
AcDbEntity
  8
0
  6
Continuous
 62
     1
100
AcDbCircle
 10
623.94
 20
443.77
 30
0.0
 40
2.5
  0
CIRCLE
  5
CF
330
1F
100
AcDbEntity
  8
0
  6
Continuous
 62
     1
100
AcDbCircle
 10
630.94
 20
443.77
 30
0.0
 40
2.5
  0
CIRCLE
  5
D0
330
1F
100
AcDbEntity
  8
0
  6
Continuous
 62
     1
100
AcDbCircle
 10
620.44
 20
438.77
 30
0.0
 40
2.5
  0
CIRCLE
  5
D1
330
1F
100
AcDbEntity
  8
0
  6
Continuous
 62
     1
100
AcDbCircle
 10
627.44
 20
438.77
 30
0.0
 40
2.5
  0
CIRCLE
  5
D2
330
1F
100
AcDbEntity
  8
0
  6
Continuous
 62
     1
100
AcDbCircle
 10
616.94
 20
443.77
 30
0.0
 40
2.5
  0
CIRCLE
  5
D3
330
1F
100
AcDbEntity
  8
0
  6
Continuous
 62
     1
100
AcDbCircle
 10
613.44
 20
438.77
 30
0.0
 40
2.5
  0
CIRCLE
  5
D4
330
1F
100
AcDbEntity
  8
0
  6
Continuous
 62
     1
100
AcDbCircle
 10
623.94
 20
473.77
 30
0.0
 40
2.5
  0
CIRCLE
  5
D5
330
1F
100
AcDbEntity
  8
0
  6
Continuous
 62
     1
100
AcDbCircle
 10
630.94
 20
473.77
 30
0.0
 40
2.5
  0
CIRCLE
  5
D6
330
1F
100
AcDbEntity
  8
0
  6
Continuous
 62
     1
100
AcDbCircle
 10
620.44
 20
468.77
 30
0.0
 40
2.5
  0
CIRCLE
  5
D7
330
1F
100
AcDbEntity
  8
0
  6
Continuous
 62
     1
100
AcDbCircle
 10
627.44
 20
468.77
 30
0.0
 40
2.5
  0
CIRCLE
  5
D8
330
1F
100
AcDbEntity
  8
0
  6
Continuous
 62
     1
100
AcDbCircle
 10
623.94
 20
463.77
 30
0.0
 40
2.5
  0
CIRCLE
  5
D9
330
1F
100
AcDbEntity
  8
0
  6
Continuous
 62
     1
100
AcDbCircle
 10
630.94
 20
463.77
 30
0.0
 40
2.5
  0
CIRCLE
  5
DA
330
1F
100
AcDbEntity
  8
0
  6
Continuous
 62
     1
100
AcDbCircle
 10
620.44
 20
458.77
 30
0.0
 40
2.5
  0
CIRCLE
  5
DB
330
1F
100
AcDbEntity
  8
0
  6
Continuous
 62
     1
100
AcDbCircle
 10
627.44
 20
458.77
 30
0.0
 40
2.5
  0
CIRCLE
  5
DC
330
1F
100
AcDbEntity
  8
0
  6
Continuous
 62
     1
100
AcDbCircle
 10
623.94
 20
453.77
 30
0.0
 40
2.5
  0
CIRCLE
  5
DD
330
1F
100
AcDbEntity
  8
0
  6
Continuous
 62
     1
100
AcDbCircle
 10
630.94
 20
453.77
 30
0.0
 40
2.5
  0
CIRCLE
  5
DE
330
1F
100
AcDbEntity
  8
0
  6
Continuous
 62
     1
100
AcDbCircle
 10
620.44
 20
448.77
 30
0.0
 40
2.5
  0
CIRCLE
  5
DF
330
1F
100
AcDbEntity
  8
0
  6
Continuous
 62
     1
100
AcDbCircle
 10
627.44
 20
448.77
 30
0.0
 40
2.5
  0
CIRCLE
  5
E0
330
1F
100
AcDbEntity
  8
0
  6
Continuous
 62
     1
100
AcDbCircle
 10
616.94
 20
473.77
 30
0.0
 40
2.5
  0
CIRCLE
  5
E1
330
1F
100
AcDbEntity
  8
0
  6
Continuous
 62
     1
100
AcDbCircle
 10
613.44
 20
468.77
 30
0.0
 40
2.5
  0
CIRCLE
  5
E2
330
1F
100
AcDbEntity
  8
0
  6
Continuous
 62
     1
100
AcDbCircle
 10
616.94
 20
463.77
 30
0.0
 40
2.5
  0
CIRCLE
  5
E3
330
1F
100
AcDbEntity
  8
0
  6
Continuous
 62
     1
100
AcDbCircle
 10
613.44
 20
458.77
 30
0.0
 40
2.5
  0
CIRCLE
  5
E4
330
1F
100
AcDbEntity
  8
0
  6
Continuous
 62
     1
100
AcDbCircle
 10
616.94
 20
453.77
 30
0.0
 40
2.5
  0
CIRCLE
  5
E5
330
1F
100
AcDbEntity
  8
0
  6
Continuous
 62
     1
100
AcDbCircle
 10
613.44
 20
448.77
 30
0.0
 40
2.5
  0
CIRCLE
  5
E6
330
1F
100
AcDbEntity
  8
0
  6
Continuous
 62
     1
100
AcDbCircle
 10
602.94
 20
443.77
 30
0.0
 40
2.5
  0
CIRCLE
  5
E7
330
1F
100
AcDbEntity
  8
0
  6
Continuous
 62
     1
100
AcDbCircle
 10
609.94
 20
443.77
 30
0.0
 40
2.5
  0
CIRCLE
  5
E8
330
1F
100
AcDbEntity
  8
0
  6
Continuous
 62
     1
100
AcDbCircle
 10
599.44
 20
438.77
 30
0.0
 40
2.5
  0
CIRCLE
  5
E9
330
1F
100
AcDbEntity
  8
0
  6
Continuous
 62
     1
100
AcDbCircle
 10
606.44
 20
438.77
 30
0.0
 40
2.5
  0
CIRCLE
  5
EA
330
1F
100
AcDbEntity
  8
0
  6
Continuous
 62
     1
100
AcDbCircle
 10
595.94
 20
443.77
 30
0.0
 40
2.5
  0
CIRCLE
  5
EB
330
1F
100
AcDbEntity
  8
0
  6
Continuous
 62
     1
100
AcDbCircle
 10
592.44
 20
438.77
 30
0.0
 40
2.5
  0
CIRCLE
  5
EC
330
1F
100
AcDbEntity
  8
0
  6
Continuous
 62
     1
100
AcDbCircle
 10
602.94
 20
473.77
 30
0.0
 40
2.5
  0
CIRCLE
  5
ED
330
1F
100
AcDbEntity
  8
0
  6
Continuous
 62
     1
100
AcDbCircle
 10
609.94
 20
473.77
 30
0.0
 40
2.5
  0
CIRCLE
  5
EE
330
1F
100
AcDbEntity
  8
0
  6
Continuous
 62
     1
100
AcDbCircle
 10
599.44
 20
468.77
 30
0.0
 40
2.5
  0
CIRCLE
  5
EF
330
1F
100
AcDbEntity
  8
0
  6
Continuous
 62
     1
100
AcDbCircle
 10
606.44
 20
468.77
 30
0.0
 40
2.5
  0
CIRCLE
  5
F0
330
1F
100
AcDbEntity
  8
0
  6
Continuous
 62
     1
100
AcDbCircle
 10
602.94
 20
463.77
 30
0.0
 40
2.5
  0
CIRCLE
  5
F1
330
1F
100
AcDbEntity
  8
0
  6
Continuous
 62
     1
100
AcDbCircle
 10
609.94
 20
463.77
 30
0.0
 40
2.5
  0
CIRCLE
  5
F2
330
1F
100
AcDbEntity
  8
0
  6
Continuous
 62
     1
100
AcDbCircle
 10
599.44
 20
458.77
 30
0.0
 40
2.5
  0
CIRCLE
  5
F3
330
1F
100
AcDbEntity
  8
0
  6
Continuous
 62
     1
100
AcDbCircle
 10
606.44
 20
458.77
 30
0.0
 40
2.5
  0
CIRCLE
  5
F4
330
1F
100
AcDbEntity
  8
0
  6
Continuous
 62
     1
100
AcDbCircle
 10
602.94
 20
453.77
 30
0.0
 40
2.5
  0
CIRCLE
  5
F5
330
1F
100
AcDbEntity
  8
0
  6
Continuous
 62
     1
100
AcDbCircle
 10
609.94
 20
453.77
 30
0.0
 40
2.5
  0
CIRCLE
  5
F6
330
1F
100
AcDbEntity
  8
0
  6
Continuous
 62
     1
100
AcDbCircle
 10
599.44
 20
448.77
 30
0.0
 40
2.5
  0
CIRCLE
  5
F7
330
1F
100
AcDbEntity
  8
0
  6
Continuous
 62
     1
100
AcDbCircle
 10
606.44
 20
448.77
 30
0.0
 40
2.5
  0
CIRCLE
  5
F8
330
1F
100
AcDbEntity
  8
0
  6
Continuous
 62
     1
100
AcDbCircle
 10
595.94
 20
473.77
 30
0.0
 40
2.5
  0
CIRCLE
  5
F9
330
1F
100
AcDbEntity
  8
0
  6
Continuous
 62
     1
100
AcDbCircle
 10
592.44
 20
468.77
 30
0.0
 40
2.5
  0
CIRCLE
  5
FA
330
1F
100
AcDbEntity
  8
0
  6
Continuous
 62
     1
100
AcDbCircle
 10
595.94
 20
463.77
 30
0.0
 40
2.5
  0
CIRCLE
  5
FB
330
1F
100
AcDbEntity
  8
0
  6
Continuous
 62
     1
100
AcDbCircle
 10
592.44
 20
458.77
 30
0.0
 40
2.5
  0
CIRCLE
  5
FC
330
1F
100
AcDbEntity
  8
0
  6
Continuous
 62
     1
100
AcDbCircle
 10
595.94
 20
453.77
 30
0.0
 40
2.5
  0
CIRCLE
  5
FD
330
1F
100
AcDbEntity
  8
0
  6
Continuous
 62
     1
100
AcDbCircle
 10
592.44
 20
448.77
 30
0.0
 40
2.5
  0
CIRCLE
  5
FE
330
1F
100
AcDbEntity
  8
0
  6
Continuous
 62
     1
100
AcDbCircle
 10
581.94
 20
443.77
 30
0.0
 40
2.5
  0
CIRCLE
  5
FF
330
1F
100
AcDbEntity
  8
0
  6
Continuous
 62
     1
100
AcDbCircle
 10
588.94
 20
443.77
 30
0.0
 40
2.5
  0
CIRCLE
  5
100
330
1F
100
AcDbEntity
  8
0
  6
Continuous
 62
     1
100
AcDbCircle
 10
578.44
 20
438.77
 30
0.0
 40
2.5
  0
CIRCLE
  5
101
330
1F
100
AcDbEntity
  8
0
  6
Continuous
 62
     1
100
AcDbCircle
 10
585.44
 20
438.77
 30
0.0
 40
2.5
  0
CIRCLE
  5
102
330
1F
100
AcDbEntity
  8
0
  6
Continuous
 62
     1
100
AcDbCircle
 10
574.94
 20
443.77
 30
0.0
 40
2.5
  0
CIRCLE
  5
103
330
1F
100
AcDbEntity
  8
0
  6
Continuous
 62
     1
100
AcDbCircle
 10
571.44
 20
438.77
 30
0.0
 40
2.5
  0
CIRCLE
  5
104
330
1F
100
AcDbEntity
  8
0
  6
Continuous
 62
     1
100
AcDbCircle
 10
581.94
 20
473.77
 30
0.0
 40
2.5
  0
CIRCLE
  5
105
330
1F
100
AcDbEntity
  8
0
  6
Continuous
 62
     1
100
AcDbCircle
 10
588.94
 20
473.77
 30
0.0
 40
2.5
  0
CIRCLE
  5
106
330
1F
100
AcDbEntity
  8
0
  6
Continuous
 62
     1
100
AcDbCircle
 10
578.44
 20
468.77
 30
0.0
 40
2.5
  0
CIRCLE
  5
107
330
1F
100
AcDbEntity
  8
0
  6
Continuous
 62
     1
100
AcDbCircle
 10
585.44
 20
468.77
 30
0.0
 40
2.5
  0
CIRCLE
  5
108
330
1F
100
AcDbEntity
  8
0
  6
Continuous
 62
     1
100
AcDbCircle
 10
581.94
 20
463.77
 30
0.0
 40
2.5
  0
CIRCLE
  5
109
330
1F
100
AcDbEntity
  8
0
  6
Continuous
 62
     1
100
AcDbCircle
 10
588.94
 20
463.77
 30
0.0
 40
2.5
  0
CIRCLE
  5
10A
330
1F
100
AcDbEntity
  8
0
  6
Continuous
 62
     1
100
AcDbCircle
 10
578.44
 20
458.77
 30
0.0
 40
2.5
  0
CIRCLE
  5
10B
330
1F
100
AcDbEntity
  8
0
  6
Continuous
 62
     1
100
AcDbCircle
 10
585.44
 20
458.77
 30
0.0
 40
2.5
  0
CIRCLE
  5
10C
330
1F
100
AcDbEntity
  8
0
  6
Continuous
 62
     1
100
AcDbCircle
 10
581.94
 20
453.77
 30
0.0
 40
2.5
  0
CIRCLE
  5
10D
330
1F
100
AcDbEntity
  8
0
  6
Continuous
 62
     1
100
AcDbCircle
 10
588.94
 20
453.77
 30
0.0
 40
2.5
  0
CIRCLE
  5
10E
330
1F
100
AcDbEntity
  8
0
  6
Continuous
 62
     1
100
AcDbCircle
 10
578.44
 20
448.77
 30
0.0
 40
2.5
  0
CIRCLE
  5
10F
330
1F
100
AcDbEntity
  8
0
  6
Continuous
 62
     1
100
AcDbCircle
 10
585.44
 20
448.77
 30
0.0
 40
2.5
  0
CIRCLE
  5
110
330
1F
100
AcDbEntity
  8
0
  6
Continuous
 62
     1
100
AcDbCircle
 10
574.94
 20
473.77
 30
0.0
 40
2.5
  0
CIRCLE
  5
111
330
1F
100
AcDbEntity
  8
0
  6
Continuous
 62
     1
100
AcDbCircle
 10
571.44
 20
468.77
 30
0.0
 40
2.5
  0
CIRCLE
  5
112
330
1F
100
AcDbEntity
  8
0
  6
Continuous
 62
     1
100
AcDbCircle
 10
574.94
 20
463.77
 30
0.0
 40
2.5
  0
CIRCLE
  5
113
330
1F
100
AcDbEntity
  8
0
  6
Continuous
 62
     1
100
AcDbCircle
 10
571.44
 20
458.77
 30
0.0
 40
2.5
  0
CIRCLE
  5
114
330
1F
100
AcDbEntity
  8
0
  6
Continuous
 62
     1
100
AcDbCircle
 10
574.94
 20
453.77
 30
0.0
 40
2.5
  0
CIRCLE
  5
115
330
1F
100
AcDbEntity
  8
0
  6
Continuous
 62
     1
100
AcDbCircle
 10
571.44
 20
448.77
 30
0.0
 40
2.5
  0
CIRCLE
  5
116
330
1F
100
AcDbEntity
  8
0
  6
Continuous
 62
     1
100
AcDbCircle
 10
560.94
 20
443.77
 30
0.0
 40
2.5
  0
CIRCLE
  5
117
330
1F
100
AcDbEntity
  8
0
  6
Continuous
 62
     1
100
AcDbCircle
 10
567.94
 20
443.77
 30
0.0
 40
2.5
  0
CIRCLE
  5
118
330
1F
100
AcDbEntity
  8
0
  6
Continuous
 62
     1
100
AcDbCircle
 10
557.44
 20
438.77
 30
0.0
 40
2.5
  0
CIRCLE
  5
119
330
1F
100
AcDbEntity
  8
0
  6
Continuous
 62
     1
100
AcDbCircle
 10
564.44
 20
438.77
 30
0.0
 40
2.5
  0
CIRCLE
  5
11A
330
1F
100
AcDbEntity
  8
0
  6
Continuous
 62
     1
100
AcDbCircle
 10
553.94
 20
443.77
 30
0.0
 40
2.5
  0
CIRCLE
  5
11B
330
1F
100
AcDbEntity
  8
0
  6
Continuous
 62
     1
100
AcDbCircle
 10
550.44
 20
438.77
 30
0.0
 40
2.5
  0
CIRCLE
  5
11C
330
1F
100
AcDbEntity
  8
0
  6
Continuous
 62
     1
100
AcDbCircle
 10
560.94
 20
473.77
 30
0.0
 40
2.5
  0
CIRCLE
  5
11D
330
1F
100
AcDbEntity
  8
0
  6
Continuous
 62
     1
100
AcDbCircle
 10
567.94
 20
473.77
 30
0.0
 40
2.5
  0
CIRCLE
  5
11E
330
1F
100
AcDbEntity
  8
0
  6
Continuous
 62
     1
100
AcDbCircle
 10
557.44
 20
468.77
 30
0.0
 40
2.5
  0
CIRCLE
  5
11F
330
1F
100
AcDbEntity
  8
0
  6
Continuous
 62
     1
100
AcDbCircle
 10
564.44
 20
468.77
 30
0.0
 40
2.5
  0
CIRCLE
  5
120
330
1F
100
AcDbEntity
  8
0
  6
Continuous
 62
     1
100
AcDbCircle
 10
560.94
 20
463.77
 30
0.0
 40
2.5
  0
CIRCLE
  5
121
330
1F
100
AcDbEntity
  8
0
  6
Continuous
 62
     1
100
AcDbCircle
 10
567.94
 20
463.77
 30
0.0
 40
2.5
  0
CIRCLE
  5
122
330
1F
100
AcDbEntity
  8
0
  6
Continuous
 62
     1
100
AcDbCircle
 10
557.44
 20
458.77
 30
0.0
 40
2.5
  0
CIRCLE
  5
123
330
1F
100
AcDbEntity
  8
0
  6
Continuous
 62
     1
100
AcDbCircle
 10
564.44
 20
458.77
 30
0.0
 40
2.5
  0
CIRCLE
  5
124
330
1F
100
AcDbEntity
  8
0
  6
Continuous
 62
     1
100
AcDbCircle
 10
560.94
 20
453.77
 30
0.0
 40
2.5
  0
CIRCLE
  5
125
330
1F
100
AcDbEntity
  8
0
  6
Continuous
 62
     1
100
AcDbCircle
 10
567.94
 20
453.77
 30
0.0
 40
2.5
  0
CIRCLE
  5
126
330
1F
100
AcDbEntity
  8
0
  6
Continuous
 62
     1
100
AcDbCircle
 10
557.44
 20
448.77
 30
0.0
 40
2.5
  0
CIRCLE
  5
127
330
1F
100
AcDbEntity
  8
0
  6
Continuous
 62
     1
100
AcDbCircle
 10
564.44
 20
448.77
 30
0.0
 40
2.5
  0
CIRCLE
  5
128
330
1F
100
AcDbEntity
  8
0
  6
Continuous
 62
     1
100
AcDbCircle
 10
553.94
 20
473.77
 30
0.0
 40
2.5
  0
CIRCLE
  5
129
330
1F
100
AcDbEntity
  8
0
  6
Continuous
 62
     1
100
AcDbCircle
 10
550.44
 20
468.77
 30
0.0
 40
2.5
  0
CIRCLE
  5
12A
330
1F
100
AcDbEntity
  8
0
  6
Continuous
 62
     1
100
AcDbCircle
 10
553.94
 20
463.77
 30
0.0
 40
2.5
  0
CIRCLE
  5
12B
330
1F
100
AcDbEntity
  8
0
  6
Continuous
 62
     1
100
AcDbCircle
 10
550.44
 20
458.77
 30
0.0
 40
2.5
  0
CIRCLE
  5
12C
330
1F
100
AcDbEntity
  8
0
  6
Continuous
 62
     1
100
AcDbCircle
 10
553.94
 20
453.77
 30
0.0
 40
2.5
  0
CIRCLE
  5
12D
330
1F
100
AcDbEntity
  8
0
  6
Continuous
 62
     1
100
AcDbCircle
 10
550.44
 20
448.77
 30
0.0
 40
2.5
  0
CIRCLE
  5
12E
330
1F
100
AcDbEntity
  8
0
  6
Continuous
 62
     1
100
AcDbCircle
 10
539.94
 20
443.77
 30
0.0
 40
2.5
  0
CIRCLE
  5
12F
330
1F
100
AcDbEntity
  8
0
  6
Continuous
 62
     1
100
AcDbCircle
 10
546.94
 20
443.77
 30
0.0
 40
2.5
  0
CIRCLE
  5
130
330
1F
100
AcDbEntity
  8
0
  6
Continuous
 62
     1
100
AcDbCircle
 10
536.44
 20
438.77
 30
0.0
 40
2.5
  0
CIRCLE
  5
131
330
1F
100
AcDbEntity
  8
0
  6
Continuous
 62
     1
100
AcDbCircle
 10
543.44
 20
438.77
 30
0.0
 40
2.5
  0
CIRCLE
  5
132
330
1F
100
AcDbEntity
  8
0
  6
Continuous
 62
     1
100
AcDbCircle
 10
532.94
 20
443.77
 30
0.0
 40
2.5
  0
CIRCLE
  5
133
330
1F
100
AcDbEntity
  8
0
  6
Continuous
 62
     1
100
AcDbCircle
 10
529.44
 20
438.77
 30
0.0
 40
2.5
  0
CIRCLE
  5
134
330
1F
100
AcDbEntity
  8
0
  6
Continuous
 62
     1
100
AcDbCircle
 10
539.94
 20
473.77
 30
0.0
 40
2.5
  0
CIRCLE
  5
135
330
1F
100
AcDbEntity
  8
0
  6
Continuous
 62
     1
100
AcDbCircle
 10
546.94
 20
473.77
 30
0.0
 40
2.5
  0
CIRCLE
  5
136
330
1F
100
AcDbEntity
  8
0
  6
Continuous
 62
     1
100
AcDbCircle
 10
536.44
 20
468.77
 30
0.0
 40
2.5
  0
CIRCLE
  5
137
330
1F
100
AcDbEntity
  8
0
  6
Continuous
 62
     1
100
AcDbCircle
 10
543.44
 20
468.77
 30
0.0
 40
2.5
  0
CIRCLE
  5
138
330
1F
100
AcDbEntity
  8
0
  6
Continuous
 62
     1
100
AcDbCircle
 10
539.94
 20
463.77
 30
0.0
 40
2.5
  0
CIRCLE
  5
139
330
1F
100
AcDbEntity
  8
0
  6
Continuous
 62
     1
100
AcDbCircle
 10
546.94
 20
463.77
 30
0.0
 40
2.5
  0
CIRCLE
  5
13A
330
1F
100
AcDbEntity
  8
0
  6
Continuous
 62
     1
100
AcDbCircle
 10
536.44
 20
458.77
 30
0.0
 40
2.5
  0
CIRCLE
  5
13B
330
1F
100
AcDbEntity
  8
0
  6
Continuous
 62
     1
100
AcDbCircle
 10
543.44
 20
458.77
 30
0.0
 40
2.5
  0
CIRCLE
  5
13C
330
1F
100
AcDbEntity
  8
0
  6
Continuous
 62
     1
100
AcDbCircle
 10
539.94
 20
453.77
 30
0.0
 40
2.5
  0
CIRCLE
  5
13D
330
1F
100
AcDbEntity
  8
0
  6
Continuous
 62
     1
100
AcDbCircle
 10
546.94
 20
453.77
 30
0.0
 40
2.5
  0
CIRCLE
  5
13E
330
1F
100
AcDbEntity
  8
0
  6
Continuous
 62
     1
100
AcDbCircle
 10
536.44
 20
448.77
 30
0.0
 40
2.5
  0
CIRCLE
  5
13F
330
1F
100
AcDbEntity
  8
0
  6
Continuous
 62
     1
100
AcDbCircle
 10
543.44
 20
448.77
 30
0.0
 40
2.5
  0
CIRCLE
  5
140
330
1F
100
AcDbEntity
  8
0
  6
Continuous
 62
     1
100
AcDbCircle
 10
532.94
 20
473.77
 30
0.0
 40
2.5
  0
CIRCLE
  5
141
330
1F
100
AcDbEntity
  8
0
  6
Continuous
 62
     1
100
AcDbCircle
 10
529.44
 20
468.77
 30
0.0
 40
2.5
  0
CIRCLE
  5
142
330
1F
100
AcDbEntity
  8
0
  6
Continuous
 62
     1
100
AcDbCircle
 10
532.94
 20
463.77
 30
0.0
 40
2.5
  0
CIRCLE
  5
143
330
1F
100
AcDbEntity
  8
0
  6
Continuous
 62
     1
100
AcDbCircle
 10
529.44
 20
458.77
 30
0.0
 40
2.5
  0
CIRCLE
  5
144
330
1F
100
AcDbEntity
  8
0
  6
Continuous
 62
     1
100
AcDbCircle
 10
532.94
 20
453.77
 30
0.0
 40
2.5
  0
CIRCLE
  5
145
330
1F
100
AcDbEntity
  8
0
  6
Continuous
 62
     1
100
AcDbCircle
 10
529.44
 20
448.77
 30
0.0
 40
2.5
  0
CIRCLE
  5
146
330
1F
100
AcDbEntity
  8
0
  6
Continuous
 62
     1
100
AcDbCircle
 10
518.94
 20
443.77
 30
0.0
 40
2.5
  0
CIRCLE
  5
147
330
1F
100
AcDbEntity
  8
0
  6
Continuous
 62
     1
100
AcDbCircle
 10
525.94
 20
443.77
 30
0.0
 40
2.5
  0
CIRCLE
  5
148
330
1F
100
AcDbEntity
  8
0
  6
Continuous
 62
     1
100
AcDbCircle
 10
515.44
 20
438.77
 30
0.0
 40
2.5
  0
CIRCLE
  5
149
330
1F
100
AcDbEntity
  8
0
  6
Continuous
 62
     1
100
AcDbCircle
 10
522.44
 20
438.77
 30
0.0
 40
2.5
  0
CIRCLE
  5
14A
330
1F
100
AcDbEntity
  8
0
  6
Continuous
 62
     1
100
AcDbCircle
 10
511.94
 20
443.77
 30
0.0
 40
2.5
  0
CIRCLE
  5
14B
330
1F
100
AcDbEntity
  8
0
  6
Continuous
 62
     1
100
AcDbCircle
 10
508.44
 20
438.77
 30
0.0
 40
2.5
  0
CIRCLE
  5
14C
330
1F
100
AcDbEntity
  8
0
  6
Continuous
 62
     1
100
AcDbCircle
 10
518.94
 20
473.77
 30
0.0
 40
2.5
  0
CIRCLE
  5
14D
330
1F
100
AcDbEntity
  8
0
  6
Continuous
 62
     1
100
AcDbCircle
 10
525.94
 20
473.77
 30
0.0
 40
2.5
  0
CIRCLE
  5
14E
330
1F
100
AcDbEntity
  8
0
  6
Continuous
 62
     1
100
AcDbCircle
 10
515.44
 20
468.77
 30
0.0
 40
2.5
  0
CIRCLE
  5
14F
330
1F
100
AcDbEntity
  8
0
  6
Continuous
 62
     1
100
AcDbCircle
 10
522.44
 20
468.77
 30
0.0
 40
2.5
  0
CIRCLE
  5
150
330
1F
100
AcDbEntity
  8
0
  6
Continuous
 62
     1
100
AcDbCircle
 10
518.94
 20
463.77
 30
0.0
 40
2.5
  0
CIRCLE
  5
151
330
1F
100
AcDbEntity
  8
0
  6
Continuous
 62
     1
100
AcDbCircle
 10
525.94
 20
463.77
 30
0.0
 40
2.5
  0
CIRCLE
  5
152
330
1F
100
AcDbEntity
  8
0
  6
Continuous
 62
     1
100
AcDbCircle
 10
515.44
 20
458.77
 30
0.0
 40
2.5
  0
CIRCLE
  5
153
330
1F
100
AcDbEntity
  8
0
  6
Continuous
 62
     1
100
AcDbCircle
 10
522.44
 20
458.77
 30
0.0
 40
2.5
  0
CIRCLE
  5
154
330
1F
100
AcDbEntity
  8
0
  6
Continuous
 62
     1
100
AcDbCircle
 10
518.94
 20
453.77
 30
0.0
 40
2.5
  0
CIRCLE
  5
155
330
1F
100
AcDbEntity
  8
0
  6
Continuous
 62
     1
100
AcDbCircle
 10
525.94
 20
453.77
 30
0.0
 40
2.5
  0
CIRCLE
  5
156
330
1F
100
AcDbEntity
  8
0
  6
Continuous
 62
     1
100
AcDbCircle
 10
515.44
 20
448.77
 30
0.0
 40
2.5
  0
CIRCLE
  5
157
330
1F
100
AcDbEntity
  8
0
  6
Continuous
 62
     1
100
AcDbCircle
 10
522.44
 20
448.77
 30
0.0
 40
2.5
  0
CIRCLE
  5
158
330
1F
100
AcDbEntity
  8
0
  6
Continuous
 62
     1
100
AcDbCircle
 10
511.94
 20
473.77
 30
0.0
 40
2.5
  0
CIRCLE
  5
159
330
1F
100
AcDbEntity
  8
0
  6
Continuous
 62
     1
100
AcDbCircle
 10
508.44
 20
468.77
 30
0.0
 40
2.5
  0
CIRCLE
  5
15A
330
1F
100
AcDbEntity
  8
0
  6
Continuous
 62
     1
100
AcDbCircle
 10
511.94
 20
463.77
 30
0.0
 40
2.5
  0
CIRCLE
  5
15B
330
1F
100
AcDbEntity
  8
0
  6
Continuous
 62
     1
100
AcDbCircle
 10
508.44
 20
458.77
 30
0.0
 40
2.5
  0
CIRCLE
  5
15C
330
1F
100
AcDbEntity
  8
0
  6
Continuous
 62
     1
100
AcDbCircle
 10
511.94
 20
453.77
 30
0.0
 40
2.5
  0
CIRCLE
  5
15D
330
1F
100
AcDbEntity
  8
0
  6
Continuous
 62
     1
100
AcDbCircle
 10
508.44
 20
448.77
 30
0.0
 40
2.5
  0
CIRCLE
  5
15E
330
1F
100
AcDbEntity
  8
0
  6
Continuous
 62
     1
100
AcDbCircle
 10
497.94
 20
443.77
 30
0.0
 40
2.5
  0
CIRCLE
  5
15F
330
1F
100
AcDbEntity
  8
0
  6
Continuous
 62
     1
100
AcDbCircle
 10
504.94
 20
443.77
 30
0.0
 40
2.5
  0
CIRCLE
  5
160
330
1F
100
AcDbEntity
  8
0
  6
Continuous
 62
     1
100
AcDbCircle
 10
494.44
 20
438.77
 30
0.0
 40
2.5
  0
CIRCLE
  5
161
330
1F
100
AcDbEntity
  8
0
  6
Continuous
 62
     1
100
AcDbCircle
 10
501.44
 20
438.77
 30
0.0
 40
2.5
  0
CIRCLE
  5
162
330
1F
100
AcDbEntity
  8
0
  6
Continuous
 62
     1
100
AcDbCircle
 10
490.94
 20
443.77
 30
0.0
 40
2.5
  0
CIRCLE
  5
163
330
1F
100
AcDbEntity
  8
0
  6
Continuous
 62
     1
100
AcDbCircle
 10
487.44
 20
438.77
 30
0.0
 40
2.5
  0
CIRCLE
  5
164
330
1F
100
AcDbEntity
  8
0
  6
Continuous
 62
     1
100
AcDbCircle
 10
497.94
 20
473.77
 30
0.0
 40
2.5
  0
CIRCLE
  5
165
330
1F
100
AcDbEntity
  8
0
  6
Continuous
 62
     1
100
AcDbCircle
 10
504.94
 20
473.77
 30
0.0
 40
2.5
  0
CIRCLE
  5
166
330
1F
100
AcDbEntity
  8
0
  6
Continuous
 62
     1
100
AcDbCircle
 10
494.44
 20
468.77
 30
0.0
 40
2.5
  0
CIRCLE
  5
167
330
1F
100
AcDbEntity
  8
0
  6
Continuous
 62
     1
100
AcDbCircle
 10
501.44
 20
468.77
 30
0.0
 40
2.5
  0
CIRCLE
  5
168
330
1F
100
AcDbEntity
  8
0
  6
Continuous
 62
     1
100
AcDbCircle
 10
497.94
 20
463.77
 30
0.0
 40
2.5
  0
CIRCLE
  5
169
330
1F
100
AcDbEntity
  8
0
  6
Continuous
 62
     1
100
AcDbCircle
 10
504.94
 20
463.77
 30
0.0
 40
2.5
  0
CIRCLE
  5
16A
330
1F
100
AcDbEntity
  8
0
  6
Continuous
 62
     1
100
AcDbCircle
 10
494.44
 20
458.77
 30
0.0
 40
2.5
  0
CIRCLE
  5
16B
330
1F
100
AcDbEntity
  8
0
  6
Continuous
 62
     1
100
AcDbCircle
 10
501.44
 20
458.77
 30
0.0
 40
2.5
  0
CIRCLE
  5
16C
330
1F
100
AcDbEntity
  8
0
  6
Continuous
 62
     1
100
AcDbCircle
 10
497.94
 20
453.77
 30
0.0
 40
2.5
  0
CIRCLE
  5
16D
330
1F
100
AcDbEntity
  8
0
  6
Continuous
 62
     1
100
AcDbCircle
 10
504.94
 20
453.77
 30
0.0
 40
2.5
  0
CIRCLE
  5
16E
330
1F
100
AcDbEntity
  8
0
  6
Continuous
 62
     1
100
AcDbCircle
 10
494.44
 20
448.77
 30
0.0
 40
2.5
  0
CIRCLE
  5
16F
330
1F
100
AcDbEntity
  8
0
  6
Continuous
 62
     1
100
AcDbCircle
 10
501.44
 20
448.77
 30
0.0
 40
2.5
  0
CIRCLE
  5
170
330
1F
100
AcDbEntity
  8
0
  6
Continuous
 62
     1
100
AcDbCircle
 10
490.94
 20
473.77
 30
0.0
 40
2.5
  0
CIRCLE
  5
171
330
1F
100
AcDbEntity
  8
0
  6
Continuous
 62
     1
100
AcDbCircle
 10
487.44
 20
468.77
 30
0.0
 40
2.5
  0
CIRCLE
  5
172
330
1F
100
AcDbEntity
  8
0
  6
Continuous
 62
     1
100
AcDbCircle
 10
490.94
 20
463.77
 30
0.0
 40
2.5
  0
CIRCLE
  5
173
330
1F
100
AcDbEntity
  8
0
  6
Continuous
 62
     1
100
AcDbCircle
 10
487.44
 20
458.77
 30
0.0
 40
2.5
  0
CIRCLE
  5
174
330
1F
100
AcDbEntity
  8
0
  6
Continuous
 62
     1
100
AcDbCircle
 10
490.94
 20
453.77
 30
0.0
 40
2.5
  0
CIRCLE
  5
175
330
1F
100
AcDbEntity
  8
0
  6
Continuous
 62
     1
100
AcDbCircle
 10
487.44
 20
448.77
 30
0.0
 40
2.5
  0
CIRCLE
  5
176
330
1F
100
AcDbEntity
  8
0
  6
Continuous
 62
     1
100
AcDbCircle
 10
476.94
 20
443.77
 30
0.0
 40
2.5
  0
CIRCLE
  5
177
330
1F
100
AcDbEntity
  8
0
  6
Continuous
 62
     1
100
AcDbCircle
 10
483.94
 20
443.77
 30
0.0
 40
2.5
  0
CIRCLE
  5
178
330
1F
100
AcDbEntity
  8
0
  6
Continuous
 62
     1
100
AcDbCircle
 10
473.44
 20
438.77
 30
0.0
 40
2.5
  0
CIRCLE
  5
179
330
1F
100
AcDbEntity
  8
0
  6
Continuous
 62
     1
100
AcDbCircle
 10
480.44
 20
438.77
 30
0.0
 40
2.5
  0
CIRCLE
  5
17A
330
1F
100
AcDbEntity
  8
0
  6
Continuous
 62
     1
100
AcDbCircle
 10
469.94
 20
443.77
 30
0.0
 40
2.5
  0
CIRCLE
  5
17B
330
1F
100
AcDbEntity
  8
0
  6
Continuous
 62
     1
100
AcDbCircle
 10
466.44
 20
438.77
 30
0.0
 40
2.5
  0
CIRCLE
  5
17C
330
1F
100
AcDbEntity
  8
0
  6
Continuous
 62
     1
100
AcDbCircle
 10
476.94
 20
473.77
 30
0.0
 40
2.5
  0
CIRCLE
  5
17D
330
1F
100
AcDbEntity
  8
0
  6
Continuous
 62
     1
100
AcDbCircle
 10
483.94
 20
473.77
 30
0.0
 40
2.5
  0
CIRCLE
  5
17E
330
1F
100
AcDbEntity
  8
0
  6
Continuous
 62
     1
100
AcDbCircle
 10
473.44
 20
468.77
 30
0.0
 40
2.5
  0
CIRCLE
  5
17F
330
1F
100
AcDbEntity
  8
0
  6
Continuous
 62
     1
100
AcDbCircle
 10
480.44
 20
468.77
 30
0.0
 40
2.5
  0
CIRCLE
  5
180
330
1F
100
AcDbEntity
  8
0
  6
Continuous
 62
     1
100
AcDbCircle
 10
476.94
 20
463.77
 30
0.0
 40
2.5
  0
CIRCLE
  5
181
330
1F
100
AcDbEntity
  8
0
  6
Continuous
 62
     1
100
AcDbCircle
 10
483.94
 20
463.77
 30
0.0
 40
2.5
  0
CIRCLE
  5
182
330
1F
100
AcDbEntity
  8
0
  6
Continuous
 62
     1
100
AcDbCircle
 10
473.44
 20
458.77
 30
0.0
 40
2.5
  0
CIRCLE
  5
183
330
1F
100
AcDbEntity
  8
0
  6
Continuous
 62
     1
100
AcDbCircle
 10
480.44
 20
458.77
 30
0.0
 40
2.5
  0
CIRCLE
  5
184
330
1F
100
AcDbEntity
  8
0
  6
Continuous
 62
     1
100
AcDbCircle
 10
476.94
 20
453.77
 30
0.0
 40
2.5
  0
CIRCLE
  5
185
330
1F
100
AcDbEntity
  8
0
  6
Continuous
 62
     1
100
AcDbCircle
 10
483.94
 20
453.77
 30
0.0
 40
2.5
  0
CIRCLE
  5
186
330
1F
100
AcDbEntity
  8
0
  6
Continuous
 62
     1
100
AcDbCircle
 10
473.44
 20
448.77
 30
0.0
 40
2.5
  0
CIRCLE
  5
187
330
1F
100
AcDbEntity
  8
0
  6
Continuous
 62
     1
100
AcDbCircle
 10
480.44
 20
448.77
 30
0.0
 40
2.5
  0
CIRCLE
  5
188
330
1F
100
AcDbEntity
  8
0
  6
Continuous
 62
     1
100
AcDbCircle
 10
469.94
 20
473.77
 30
0.0
 40
2.5
  0
CIRCLE
  5
189
330
1F
100
AcDbEntity
  8
0
  6
Continuous
 62
     1
100
AcDbCircle
 10
466.44
 20
468.77
 30
0.0
 40
2.5
  0
CIRCLE
  5
18A
330
1F
100
AcDbEntity
  8
0
  6
Continuous
 62
     1
100
AcDbCircle
 10
469.94
 20
463.77
 30
0.0
 40
2.5
  0
CIRCLE
  5
18B
330
1F
100
AcDbEntity
  8
0
  6
Continuous
 62
     1
100
AcDbCircle
 10
466.44
 20
458.77
 30
0.0
 40
2.5
  0
CIRCLE
  5
18C
330
1F
100
AcDbEntity
  8
0
  6
Continuous
 62
     1
100
AcDbCircle
 10
469.94
 20
453.77
 30
0.0
 40
2.5
  0
CIRCLE
  5
18D
330
1F
100
AcDbEntity
  8
0
  6
Continuous
 62
     1
100
AcDbCircle
 10
466.44
 20
448.77
 30
0.0
 40
2.5
  0
CIRCLE
  5
18E
330
1F
100
AcDbEntity
  8
0
  6
Continuous
 62
     1
100
AcDbCircle
 10
455.94
 20
443.77
 30
0.0
 40
2.5
  0
CIRCLE
  5
18F
330
1F
100
AcDbEntity
  8
0
  6
Continuous
 62
     1
100
AcDbCircle
 10
462.94
 20
443.77
 30
0.0
 40
2.5
  0
CIRCLE
  5
190
330
1F
100
AcDbEntity
  8
0
  6
Continuous
 62
     1
100
AcDbCircle
 10
452.44
 20
438.77
 30
0.0
 40
2.5
  0
CIRCLE
  5
191
330
1F
100
AcDbEntity
  8
0
  6
Continuous
 62
     1
100
AcDbCircle
 10
459.44
 20
438.77
 30
0.0
 40
2.5
  0
CIRCLE
  5
192
330
1F
100
AcDbEntity
  8
0
  6
Continuous
 62
     1
100
AcDbCircle
 10
448.94
 20
443.77
 30
0.0
 40
2.5
  0
CIRCLE
  5
193
330
1F
100
AcDbEntity
  8
0
  6
Continuous
 62
     1
100
AcDbCircle
 10
445.44
 20
438.77
 30
0.0
 40
2.5
  0
CIRCLE
  5
194
330
1F
100
AcDbEntity
  8
0
  6
Continuous
 62
     1
100
AcDbCircle
 10
455.94
 20
473.77
 30
0.0
 40
2.5
  0
CIRCLE
  5
195
330
1F
100
AcDbEntity
  8
0
  6
Continuous
 62
     1
100
AcDbCircle
 10
462.94
 20
473.77
 30
0.0
 40
2.5
  0
CIRCLE
  5
196
330
1F
100
AcDbEntity
  8
0
  6
Continuous
 62
     1
100
AcDbCircle
 10
452.44
 20
468.77
 30
0.0
 40
2.5
  0
CIRCLE
  5
197
330
1F
100
AcDbEntity
  8
0
  6
Continuous
 62
     1
100
AcDbCircle
 10
459.44
 20
468.77
 30
0.0
 40
2.5
  0
CIRCLE
  5
198
330
1F
100
AcDbEntity
  8
0
  6
Continuous
 62
     1
100
AcDbCircle
 10
455.94
 20
463.77
 30
0.0
 40
2.5
  0
CIRCLE
  5
199
330
1F
100
AcDbEntity
  8
0
  6
Continuous
 62
     1
100
AcDbCircle
 10
462.94
 20
463.77
 30
0.0
 40
2.5
  0
CIRCLE
  5
19A
330
1F
100
AcDbEntity
  8
0
  6
Continuous
 62
     1
100
AcDbCircle
 10
452.44
 20
458.77
 30
0.0
 40
2.5
  0
CIRCLE
  5
19B
330
1F
100
AcDbEntity
  8
0
  6
Continuous
 62
     1
100
AcDbCircle
 10
459.44
 20
458.77
 30
0.0
 40
2.5
  0
CIRCLE
  5
19C
330
1F
100
AcDbEntity
  8
0
  6
Continuous
 62
     1
100
AcDbCircle
 10
455.94
 20
453.77
 30
0.0
 40
2.5
  0
CIRCLE
  5
19D
330
1F
100
AcDbEntity
  8
0
  6
Continuous
 62
     1
100
AcDbCircle
 10
462.94
 20
453.77
 30
0.0
 40
2.5
  0
CIRCLE
  5
19E
330
1F
100
AcDbEntity
  8
0
  6
Continuous
 62
     1
100
AcDbCircle
 10
452.44
 20
448.77
 30
0.0
 40
2.5
  0
CIRCLE
  5
19F
330
1F
100
AcDbEntity
  8
0
  6
Continuous
 62
     1
100
AcDbCircle
 10
459.44
 20
448.77
 30
0.0
 40
2.5
  0
CIRCLE
  5
1A0
330
1F
100
AcDbEntity
  8
0
  6
Continuous
 62
     1
100
AcDbCircle
 10
448.94
 20
473.77
 30
0.0
 40
2.5
  0
CIRCLE
  5
1A1
330
1F
100
AcDbEntity
  8
0
  6
Continuous
 62
     1
100
AcDbCircle
 10
445.44
 20
468.77
 30
0.0
 40
2.5
  0
CIRCLE
  5
1A2
330
1F
100
AcDbEntity
  8
0
  6
Continuous
 62
     1
100
AcDbCircle
 10
448.94
 20
463.77
 30
0.0
 40
2.5
  0
CIRCLE
  5
1A3
330
1F
100
AcDbEntity
  8
0
  6
Continuous
 62
     1
100
AcDbCircle
 10
445.44
 20
458.77
 30
0.0
 40
2.5
  0
CIRCLE
  5
1A4
330
1F
100
AcDbEntity
  8
0
  6
Continuous
 62
     1
100
AcDbCircle
 10
448.94
 20
453.77
 30
0.0
 40
2.5
  0
CIRCLE
  5
1A5
330
1F
100
AcDbEntity
  8
0
  6
Continuous
 62
     1
100
AcDbCircle
 10
445.44
 20
448.77
 30
0.0
 40
2.5
  0
CIRCLE
  5
1A6
330
1F
100
AcDbEntity
  8
0
  6
Continuous
 62
     1
100
AcDbCircle
 10
434.94
 20
443.77
 30
0.0
 40
2.5
  0
CIRCLE
  5
1A7
330
1F
100
AcDbEntity
  8
0
  6
Continuous
 62
     1
100
AcDbCircle
 10
441.94
 20
443.77
 30
0.0
 40
2.5
  0
CIRCLE
  5
1A8
330
1F
100
AcDbEntity
  8
0
  6
Continuous
 62
     1
100
AcDbCircle
 10
431.44
 20
438.77
 30
0.0
 40
2.5
  0
CIRCLE
  5
1A9
330
1F
100
AcDbEntity
  8
0
  6
Continuous
 62
     1
100
AcDbCircle
 10
438.44
 20
438.77
 30
0.0
 40
2.5
  0
CIRCLE
  5
1AA
330
1F
100
AcDbEntity
  8
0
  6
Continuous
 62
     1
100
AcDbCircle
 10
427.94
 20
443.77
 30
0.0
 40
2.5
  0
CIRCLE
  5
1AB
330
1F
100
AcDbEntity
  8
0
  6
Continuous
 62
     1
100
AcDbCircle
 10
424.44
 20
438.77
 30
0.0
 40
2.5
  0
CIRCLE
  5
1AC
330
1F
100
AcDbEntity
  8
0
  6
Continuous
 62
     1
100
AcDbCircle
 10
434.94
 20
473.77
 30
0.0
 40
2.5
  0
CIRCLE
  5
1AD
330
1F
100
AcDbEntity
  8
0
  6
Continuous
 62
     1
100
AcDbCircle
 10
441.94
 20
473.77
 30
0.0
 40
2.5
  0
CIRCLE
  5
1AE
330
1F
100
AcDbEntity
  8
0
  6
Continuous
 62
     1
100
AcDbCircle
 10
431.44
 20
468.77
 30
0.0
 40
2.5
  0
CIRCLE
  5
1AF
330
1F
100
AcDbEntity
  8
0
  6
Continuous
 62
     1
100
AcDbCircle
 10
438.44
 20
468.77
 30
0.0
 40
2.5
  0
CIRCLE
  5
1B0
330
1F
100
AcDbEntity
  8
0
  6
Continuous
 62
     1
100
AcDbCircle
 10
434.94
 20
463.77
 30
0.0
 40
2.5
  0
CIRCLE
  5
1B1
330
1F
100
AcDbEntity
  8
0
  6
Continuous
 62
     1
100
AcDbCircle
 10
441.94
 20
463.77
 30
0.0
 40
2.5
  0
CIRCLE
  5
1B2
330
1F
100
AcDbEntity
  8
0
  6
Continuous
 62
     1
100
AcDbCircle
 10
431.44
 20
458.77
 30
0.0
 40
2.5
  0
CIRCLE
  5
1B3
330
1F
100
AcDbEntity
  8
0
  6
Continuous
 62
     1
100
AcDbCircle
 10
438.44
 20
458.77
 30
0.0
 40
2.5
  0
CIRCLE
  5
1B4
330
1F
100
AcDbEntity
  8
0
  6
Continuous
 62
     1
100
AcDbCircle
 10
434.94
 20
453.77
 30
0.0
 40
2.5
  0
CIRCLE
  5
1B5
330
1F
100
AcDbEntity
  8
0
  6
Continuous
 62
     1
100
AcDbCircle
 10
441.94
 20
453.77
 30
0.0
 40
2.5
  0
CIRCLE
  5
1B6
330
1F
100
AcDbEntity
  8
0
  6
Continuous
 62
     1
100
AcDbCircle
 10
431.44
 20
448.77
 30
0.0
 40
2.5
  0
CIRCLE
  5
1B7
330
1F
100
AcDbEntity
  8
0
  6
Continuous
 62
     1
100
AcDbCircle
 10
438.44
 20
448.77
 30
0.0
 40
2.5
  0
CIRCLE
  5
1B8
330
1F
100
AcDbEntity
  8
0
  6
Continuous
 62
     1
100
AcDbCircle
 10
427.94
 20
473.77
 30
0.0
 40
2.5
  0
CIRCLE
  5
1B9
330
1F
100
AcDbEntity
  8
0
  6
Continuous
 62
     1
100
AcDbCircle
 10
424.44
 20
468.77
 30
0.0
 40
2.5
  0
CIRCLE
  5
1BA
330
1F
100
AcDbEntity
  8
0
  6
Continuous
 62
     1
100
AcDbCircle
 10
427.94
 20
463.77
 30
0.0
 40
2.5
  0
CIRCLE
  5
1BB
330
1F
100
AcDbEntity
  8
0
  6
Continuous
 62
     1
100
AcDbCircle
 10
424.44
 20
458.77
 30
0.0
 40
2.5
  0
CIRCLE
  5
1BC
330
1F
100
AcDbEntity
  8
0
  6
Continuous
 62
     1
100
AcDbCircle
 10
427.94
 20
453.77
 30
0.0
 40
2.5
  0
CIRCLE
  5
1BD
330
1F
100
AcDbEntity
  8
0
  6
Continuous
 62
     1
100
AcDbCircle
 10
424.44
 20
448.77
 30
0.0
 40
2.5
  0
CIRCLE
  5
1BE
330
1F
100
AcDbEntity
  8
0
  6
Continuous
 62
     1
100
AcDbCircle
 10
413.94
 20
443.77
 30
0.0
 40
2.5
  0
CIRCLE
  5
1BF
330
1F
100
AcDbEntity
  8
0
  6
Continuous
 62
     1
100
AcDbCircle
 10
420.94
 20
443.77
 30
0.0
 40
2.5
  0
CIRCLE
  5
1C0
330
1F
100
AcDbEntity
  8
0
  6
Continuous
 62
     1
100
AcDbCircle
 10
410.44
 20
438.77
 30
0.0
 40
2.5
  0
CIRCLE
  5
1C1
330
1F
100
AcDbEntity
  8
0
  6
Continuous
 62
     1
100
AcDbCircle
 10
417.44
 20
438.77
 30
0.0
 40
2.5
  0
CIRCLE
  5
1C2
330
1F
100
AcDbEntity
  8
0
  6
Continuous
 62
     1
100
AcDbCircle
 10
406.94
 20
443.77
 30
0.0
 40
2.5
  0
CIRCLE
  5
1C3
330
1F
100
AcDbEntity
  8
0
  6
Continuous
 62
     1
100
AcDbCircle
 10
403.44
 20
438.77
 30
0.0
 40
2.5
  0
CIRCLE
  5
1C4
330
1F
100
AcDbEntity
  8
0
  6
Continuous
 62
     1
100
AcDbCircle
 10
413.94
 20
473.77
 30
0.0
 40
2.5
  0
CIRCLE
  5
1C5
330
1F
100
AcDbEntity
  8
0
  6
Continuous
 62
     1
100
AcDbCircle
 10
420.94
 20
473.77
 30
0.0
 40
2.5
  0
CIRCLE
  5
1C6
330
1F
100
AcDbEntity
  8
0
  6
Continuous
 62
     1
100
AcDbCircle
 10
410.44
 20
468.77
 30
0.0
 40
2.5
  0
CIRCLE
  5
1C7
330
1F
100
AcDbEntity
  8
0
  6
Continuous
 62
     1
100
AcDbCircle
 10
417.44
 20
468.77
 30
0.0
 40
2.5
  0
CIRCLE
  5
1C8
330
1F
100
AcDbEntity
  8
0
  6
Continuous
 62
     1
100
AcDbCircle
 10
413.94
 20
463.77
 30
0.0
 40
2.5
  0
CIRCLE
  5
1C9
330
1F
100
AcDbEntity
  8
0
  6
Continuous
 62
     1
100
AcDbCircle
 10
420.94
 20
463.77
 30
0.0
 40
2.5
  0
CIRCLE
  5
1CA
330
1F
100
AcDbEntity
  8
0
  6
Continuous
 62
     1
100
AcDbCircle
 10
410.44
 20
458.77
 30
0.0
 40
2.5
  0
CIRCLE
  5
1CB
330
1F
100
AcDbEntity
  8
0
  6
Continuous
 62
     1
100
AcDbCircle
 10
417.44
 20
458.77
 30
0.0
 40
2.5
  0
CIRCLE
  5
1CC
330
1F
100
AcDbEntity
  8
0
  6
Continuous
 62
     1
100
AcDbCircle
 10
413.94
 20
453.77
 30
0.0
 40
2.5
  0
CIRCLE
  5
1CD
330
1F
100
AcDbEntity
  8
0
  6
Continuous
 62
     1
100
AcDbCircle
 10
420.94
 20
453.77
 30
0.0
 40
2.5
  0
CIRCLE
  5
1CE
330
1F
100
AcDbEntity
  8
0
  6
Continuous
 62
     1
100
AcDbCircle
 10
410.44
 20
448.77
 30
0.0
 40
2.5
  0
CIRCLE
  5
1CF
330
1F
100
AcDbEntity
  8
0
  6
Continuous
 62
     1
100
AcDbCircle
 10
417.44
 20
448.77
 30
0.0
 40
2.5
  0
CIRCLE
  5
1D0
330
1F
100
AcDbEntity
  8
0
  6
Continuous
 62
     1
100
AcDbCircle
 10
406.94
 20
473.77
 30
0.0
 40
2.5
  0
CIRCLE
  5
1D1
330
1F
100
AcDbEntity
  8
0
  6
Continuous
 62
     1
100
AcDbCircle
 10
403.44
 20
468.77
 30
0.0
 40
2.5
  0
CIRCLE
  5
1D2
330
1F
100
AcDbEntity
  8
0
  6
Continuous
 62
     1
100
AcDbCircle
 10
406.94
 20
463.77
 30
0.0
 40
2.5
  0
CIRCLE
  5
1D3
330
1F
100
AcDbEntity
  8
0
  6
Continuous
 62
     1
100
AcDbCircle
 10
403.44
 20
458.77
 30
0.0
 40
2.5
  0
CIRCLE
  5
1D4
330
1F
100
AcDbEntity
  8
0
  6
Continuous
 62
     1
100
AcDbCircle
 10
406.94
 20
453.77
 30
0.0
 40
2.5
  0
CIRCLE
  5
1D5
330
1F
100
AcDbEntity
  8
0
  6
Continuous
 62
     1
100
AcDbCircle
 10
403.44
 20
448.77
 30
0.0
 40
2.5
  0
CIRCLE
  5
1D6
330
1F
100
AcDbEntity
  8
0
  6
Continuous
 62
     1
100
AcDbCircle
 10
399.94
 20
443.77
 30
0.0
 40
2.5
  0
CIRCLE
  5
1D7
330
1F
100
AcDbEntity
  8
0
  6
Continuous
 62
     1
100
AcDbCircle
 10
396.44
 20
438.77
 30
0.0
 40
2.5
  0
CIRCLE
  5
1D8
330
1F
100
AcDbEntity
  8
0
  6
Continuous
 62
     1
100
AcDbCircle
 10
392.94
 20
443.77
 30
0.0
 40
2.5
  0
CIRCLE
  5
1D9
330
1F
100
AcDbEntity
  8
0
  6
Continuous
 62
     1
100
AcDbCircle
 10
399.94
 20
473.77
 30
0.0
 40
2.5
  0
CIRCLE
  5
1DA
330
1F
100
AcDbEntity
  8
0
  6
Continuous
 62
     1
100
AcDbCircle
 10
396.44
 20
468.77
 30
0.0
 40
2.5
  0
CIRCLE
  5
1DB
330
1F
100
AcDbEntity
  8
0
  6
Continuous
 62
     1
100
AcDbCircle
 10
399.94
 20
463.77
 30
0.0
 40
2.5
  0
CIRCLE
  5
1DC
330
1F
100
AcDbEntity
  8
0
  6
Continuous
 62
     1
100
AcDbCircle
 10
396.44
 20
458.77
 30
0.0
 40
2.5
  0
CIRCLE
  5
1DD
330
1F
100
AcDbEntity
  8
0
  6
Continuous
 62
     1
100
AcDbCircle
 10
399.94
 20
453.77
 30
0.0
 40
2.5
  0
CIRCLE
  5
1DE
330
1F
100
AcDbEntity
  8
0
  6
Continuous
 62
     1
100
AcDbCircle
 10
396.44
 20
448.77
 30
0.0
 40
2.5
  0
CIRCLE
  5
1DF
330
1F
100
AcDbEntity
  8
0
  6
Continuous
 62
     1
100
AcDbCircle
 10
392.94
 20
473.77
 30
0.0
 40
2.5
  0
CIRCLE
  5
1E0
330
1F
100
AcDbEntity
  8
0
  6
Continuous
 62
     1
100
AcDbCircle
 10
392.94
 20
463.77
 30
0.0
 40
2.5
  0
CIRCLE
  5
1E1
330
1F
100
AcDbEntity
  8
0
  6
Continuous
 62
     1
100
AcDbCircle
 10
392.94
 20
453.77
 30
0.0
 40
2.5
  0
CIRCLE
  5
1E2
330
1F
100
AcDbEntity
  8
0
  6
Continuous
 62
     1
100
AcDbCircle
 10
651.94
 20
443.77
 30
0.0
 40
2.5
  0
CIRCLE
  5
1E3
330
1F
100
AcDbEntity
  8
0
  6
Continuous
 62
     1
100
AcDbCircle
 10
658.94
 20
443.77
 30
0.0
 40
2.5
  0
CIRCLE
  5
1E4
330
1F
100
AcDbEntity
  8
0
  6
Continuous
 62
     1
100
AcDbCircle
 10
648.44
 20
438.77
 30
0.0
 40
2.5
  0
CIRCLE
  5
1E5
330
1F
100
AcDbEntity
  8
0
  6
Continuous
 62
     1
100
AcDbCircle
 10
655.44
 20
438.77
 30
0.0
 40
2.5
  0
CIRCLE
  5
1E6
330
1F
100
AcDbEntity
  8
0
  6
Continuous
 62
     1
100
AcDbCircle
 10
644.94
 20
443.77
 30
0.0
 40
2.5
  0
CIRCLE
  5
1E7
330
1F
100
AcDbEntity
  8
0
  6
Continuous
 62
     1
100
AcDbCircle
 10
641.44
 20
438.77
 30
0.0
 40
2.5
  0
CIRCLE
  5
1E8
330
1F
100
AcDbEntity
  8
0
  6
Continuous
 62
     1
100
AcDbCircle
 10
651.94
 20
473.77
 30
0.0
 40
2.5
  0
CIRCLE
  5
1E9
330
1F
100
AcDbEntity
  8
0
  6
Continuous
 62
     1
100
AcDbCircle
 10
658.94
 20
473.77
 30
0.0
 40
2.5
  0
CIRCLE
  5
1EA
330
1F
100
AcDbEntity
  8
0
  6
Continuous
 62
     1
100
AcDbCircle
 10
648.44
 20
468.77
 30
0.0
 40
2.5
  0
CIRCLE
  5
1EB
330
1F
100
AcDbEntity
  8
0
  6
Continuous
 62
     1
100
AcDbCircle
 10
655.44
 20
468.77
 30
0.0
 40
2.5
  0
CIRCLE
  5
1EC
330
1F
100
AcDbEntity
  8
0
  6
Continuous
 62
     1
100
AcDbCircle
 10
651.94
 20
463.77
 30
0.0
 40
2.5
  0
CIRCLE
  5
1ED
330
1F
100
AcDbEntity
  8
0
  6
Continuous
 62
     1
100
AcDbCircle
 10
658.94
 20
463.77
 30
0.0
 40
2.5
  0
CIRCLE
  5
1EE
330
1F
100
AcDbEntity
  8
0
  6
Continuous
 62
     1
100
AcDbCircle
 10
648.44
 20
458.77
 30
0.0
 40
2.5
  0
CIRCLE
  5
1EF
330
1F
100
AcDbEntity
  8
0
  6
Continuous
 62
     1
100
AcDbCircle
 10
655.44
 20
458.77
 30
0.0
 40
2.5
  0
CIRCLE
  5
1F0
330
1F
100
AcDbEntity
  8
0
  6
Continuous
 62
     1
100
AcDbCircle
 10
651.94
 20
453.77
 30
0.0
 40
2.5
  0
CIRCLE
  5
1F1
330
1F
100
AcDbEntity
  8
0
  6
Continuous
 62
     1
100
AcDbCircle
 10
658.94
 20
453.77
 30
0.0
 40
2.5
  0
CIRCLE
  5
1F2
330
1F
100
AcDbEntity
  8
0
  6
Continuous
 62
     1
100
AcDbCircle
 10
648.44
 20
448.77
 30
0.0
 40
2.5
  0
CIRCLE
  5
1F3
330
1F
100
AcDbEntity
  8
0
  6
Continuous
 62
     1
100
AcDbCircle
 10
655.44
 20
448.77
 30
0.0
 40
2.5
  0
CIRCLE
  5
1F4
330
1F
100
AcDbEntity
  8
0
  6
Continuous
 62
     1
100
AcDbCircle
 10
644.94
 20
473.77
 30
0.0
 40
2.5
  0
CIRCLE
  5
1F5
330
1F
100
AcDbEntity
  8
0
  6
Continuous
 62
     1
100
AcDbCircle
 10
641.44
 20
468.77
 30
0.0
 40
2.5
  0
CIRCLE
  5
1F6
330
1F
100
AcDbEntity
  8
0
  6
Continuous
 62
     1
100
AcDbCircle
 10
644.94
 20
463.77
 30
0.0
 40
2.5
  0
CIRCLE
  5
1F7
330
1F
100
AcDbEntity
  8
0
  6
Continuous
 62
     1
100
AcDbCircle
 10
641.44
 20
458.77
 30
0.0
 40
2.5
  0
CIRCLE
  5
1F8
330
1F
100
AcDbEntity
  8
0
  6
Continuous
 62
     1
100
AcDbCircle
 10
644.94
 20
453.77
 30
0.0
 40
2.5
  0
CIRCLE
  5
1F9
330
1F
100
AcDbEntity
  8
0
  6
Continuous
 62
     1
100
AcDbCircle
 10
641.44
 20
448.77
 30
0.0
 40
2.5
  0
CIRCLE
  5
1FA
330
1F
100
AcDbEntity
  8
0
  6
Continuous
 62
     1
100
AcDbCircle
 10
637.94
 20
443.77
 30
0.0
 40
2.5
  0
CIRCLE
  5
1FB
330
1F
100
AcDbEntity
  8
0
  6
Continuous
 62
     1
100
AcDbCircle
 10
634.44
 20
438.77
 30
0.0
 40
2.5
  0
CIRCLE
  5
1FC
330
1F
100
AcDbEntity
  8
0
  6
Continuous
 62
     1
100
AcDbCircle
 10
637.94
 20
473.77
 30
0.0
 40
2.5
  0
CIRCLE
  5
1FD
330
1F
100
AcDbEntity
  8
0
  6
Continuous
 62
     1
100
AcDbCircle
 10
634.44
 20
468.77
 30
0.0
 40
2.5
  0
CIRCLE
  5
1FE
330
1F
100
AcDbEntity
  8
0
  6
Continuous
 62
     1
100
AcDbCircle
 10
637.94
 20
463.77
 30
0.0
 40
2.5
  0
CIRCLE
  5
1FF
330
1F
100
AcDbEntity
  8
0
  6
Continuous
 62
     1
100
AcDbCircle
 10
634.44
 20
458.77
 30
0.0
 40
2.5
  0
CIRCLE
  5
200
330
1F
100
AcDbEntity
  8
0
  6
Continuous
 62
     1
100
AcDbCircle
 10
637.94
 20
453.77
 30
0.0
 40
2.5
  0
CIRCLE
  5
201
330
1F
100
AcDbEntity
  8
0
  6
Continuous
 62
     1
100
AcDbCircle
 10
634.44
 20
448.77
 30
0.0
 40
2.5
  0
CIRCLE
  5
202
330
1F
100
AcDbEntity
  8
0
  6
Continuous
 62
     1
100
AcDbCircle
 10
385.94
 20
443.77
 30
0.0
 40
2.5
  0
CIRCLE
  5
203
330
1F
100
AcDbEntity
  8
0
  6
Continuous
 62
     1
100
AcDbCircle
 10
382.44
 20
438.77
 30
0.0
 40
2.5
  0
CIRCLE
  5
204
330
1F
100
AcDbEntity
  8
0
  6
Continuous
 62
     1
100
AcDbCircle
 10
389.44
 20
438.77
 30
0.0
 40
2.5
  0
CIRCLE
  5
205
330
1F
100
AcDbEntity
  8
0
  6
Continuous
 62
     1
100
AcDbCircle
 10
378.94
 20
443.77
 30
0.0
 40
2.5
  0
CIRCLE
  5
206
330
1F
100
AcDbEntity
  8
0
  6
Continuous
 62
     1
100
AcDbCircle
 10
375.44
 20
438.77
 30
0.0
 40
2.5
  0
CIRCLE
  5
207
330
1F
100
AcDbEntity
  8
0
  6
Continuous
 62
     1
100
AcDbCircle
 10
385.94
 20
473.77
 30
0.0
 40
2.5
  0
CIRCLE
  5
208
330
1F
100
AcDbEntity
  8
0
  6
Continuous
 62
     1
100
AcDbCircle
 10
382.44
 20
468.77
 30
0.0
 40
2.5
  0
CIRCLE
  5
209
330
1F
100
AcDbEntity
  8
0
  6
Continuous
 62
     1
100
AcDbCircle
 10
389.44
 20
468.77
 30
0.0
 40
2.5
  0
CIRCLE
  5
20A
330
1F
100
AcDbEntity
  8
0
  6
Continuous
 62
     1
100
AcDbCircle
 10
385.94
 20
463.77
 30
0.0
 40
2.5
  0
CIRCLE
  5
20B
330
1F
100
AcDbEntity
  8
0
  6
Continuous
 62
     1
100
AcDbCircle
 10
382.44
 20
458.77
 30
0.0
 40
2.5
  0
CIRCLE
  5
20C
330
1F
100
AcDbEntity
  8
0
  6
Continuous
 62
     1
100
AcDbCircle
 10
389.44
 20
458.77
 30
0.0
 40
2.5
  0
CIRCLE
  5
20D
330
1F
100
AcDbEntity
  8
0
  6
Continuous
 62
     1
100
AcDbCircle
 10
385.94
 20
453.77
 30
0.0
 40
2.5
  0
CIRCLE
  5
20E
330
1F
100
AcDbEntity
  8
0
  6
Continuous
 62
     1
100
AcDbCircle
 10
382.44
 20
448.77
 30
0.0
 40
2.5
  0
CIRCLE
  5
20F
330
1F
100
AcDbEntity
  8
0
  6
Continuous
 62
     1
100
AcDbCircle
 10
389.44
 20
448.77
 30
0.0
 40
2.5
  0
CIRCLE
  5
210
330
1F
100
AcDbEntity
  8
0
  6
Continuous
 62
     1
100
AcDbCircle
 10
378.94
 20
473.77
 30
0.0
 40
2.5
  0
CIRCLE
  5
211
330
1F
100
AcDbEntity
  8
0
  6
Continuous
 62
     1
100
AcDbCircle
 10
375.44
 20
468.77
 30
0.0
 40
2.5
  0
CIRCLE
  5
212
330
1F
100
AcDbEntity
  8
0
  6
Continuous
 62
     1
100
AcDbCircle
 10
378.94
 20
463.77
 30
0.0
 40
2.5
  0
CIRCLE
  5
213
330
1F
100
AcDbEntity
  8
0
  6
Continuous
 62
     1
100
AcDbCircle
 10
375.44
 20
458.77
 30
0.0
 40
2.5
  0
CIRCLE
  5
214
330
1F
100
AcDbEntity
  8
0
  6
Continuous
 62
     1
100
AcDbCircle
 10
378.94
 20
453.77
 30
0.0
 40
2.5
  0
CIRCLE
  5
215
330
1F
100
AcDbEntity
  8
0
  6
Continuous
 62
     1
100
AcDbCircle
 10
375.44
 20
448.77
 30
0.0
 40
2.5
  0
CIRCLE
  5
216
330
1F
100
AcDbEntity
  8
0
  6
Continuous
 62
     1
100
AcDbCircle
 10
371.94
 20
443.77
 30
0.0
 40
2.5
  0
CIRCLE
  5
217
330
1F
100
AcDbEntity
  8
0
  6
Continuous
 62
     1
100
AcDbCircle
 10
368.44
 20
438.77
 30
0.0
 40
2.5
  0
CIRCLE
  5
218
330
1F
100
AcDbEntity
  8
0
  6
Continuous
 62
     1
100
AcDbCircle
 10
364.94
 20
443.77
 30
0.0
 40
2.5
  0
CIRCLE
  5
219
330
1F
100
AcDbEntity
  8
0
  6
Continuous
 62
     1
100
AcDbCircle
 10
371.94
 20
473.77
 30
0.0
 40
2.5
  0
CIRCLE
  5
21A
330
1F
100
AcDbEntity
  8
0
  6
Continuous
 62
     1
100
AcDbCircle
 10
368.44
 20
468.77
 30
0.0
 40
2.5
  0
CIRCLE
  5
21B
330
1F
100
AcDbEntity
  8
0
  6
Continuous
 62
     1
100
AcDbCircle
 10
371.94
 20
463.77
 30
0.0
 40
2.5
  0
CIRCLE
  5
21C
330
1F
100
AcDbEntity
  8
0
  6
Continuous
 62
     1
100
AcDbCircle
 10
368.44
 20
458.77
 30
0.0
 40
2.5
  0
CIRCLE
  5
21D
330
1F
100
AcDbEntity
  8
0
  6
Continuous
 62
     1
100
AcDbCircle
 10
371.94
 20
453.77
 30
0.0
 40
2.5
  0
CIRCLE
  5
21E
330
1F
100
AcDbEntity
  8
0
  6
Continuous
 62
     1
100
AcDbCircle
 10
368.44
 20
448.77
 30
0.0
 40
2.5
  0
CIRCLE
  5
21F
330
1F
100
AcDbEntity
  8
0
  6
Continuous
 62
     1
100
AcDbCircle
 10
364.94
 20
473.77
 30
0.0
 40
2.5
  0
CIRCLE
  5
220
330
1F
100
AcDbEntity
  8
0
  6
Continuous
 62
     1
100
AcDbCircle
 10
364.94
 20
463.77
 30
0.0
 40
2.5
  0
CIRCLE
  5
221
330
1F
100
AcDbEntity
  8
0
  6
Continuous
 62
     1
100
AcDbCircle
 10
364.94
 20
453.77
 30
0.0
 40
2.5
  0
CIRCLE
  5
222
330
1F
100
AcDbEntity
  8
0
  6
Continuous
 62
     1
100
AcDbCircle
 10
665.94
 20
443.77
 30
0.0
 40
2.5
  0
CIRCLE
  5
223
330
1F
100
AcDbEntity
  8
0
  6
Continuous
 62
     1
100
AcDbCircle
 10
672.94
 20
443.77
 30
0.0
 40
2.5
  0
CIRCLE
  5
224
330
1F
100
AcDbEntity
  8
0
  6
Continuous
 62
     1
100
AcDbCircle
 10
662.44
 20
438.77
 30
0.0
 40
2.5
  0
CIRCLE
  5
225
330
1F
100
AcDbEntity
  8
0
  6
Continuous
 62
     1
100
AcDbCircle
 10
669.44
 20
438.77
 30
0.0
 40
2.5
  0
CIRCLE
  5
226
330
1F
100
AcDbEntity
  8
0
  6
Continuous
 62
     1
100
AcDbCircle
 10
658.94
 20
443.77
 30
0.0
 40
2.5
  0
CIRCLE
  5
227
330
1F
100
AcDbEntity
  8
0
  6
Continuous
 62
     1
100
AcDbCircle
 10
665.94
 20
473.77
 30
0.0
 40
2.5
  0
CIRCLE
  5
228
330
1F
100
AcDbEntity
  8
0
  6
Continuous
 62
     1
100
AcDbCircle
 10
672.94
 20
473.77
 30
0.0
 40
2.5
  0
CIRCLE
  5
229
330
1F
100
AcDbEntity
  8
0
  6
Continuous
 62
     1
100
AcDbCircle
 10
662.44
 20
468.77
 30
0.0
 40
2.5
  0
CIRCLE
  5
22A
330
1F
100
AcDbEntity
  8
0
  6
Continuous
 62
     1
100
AcDbCircle
 10
669.44
 20
468.77
 30
0.0
 40
2.5
  0
CIRCLE
  5
22B
330
1F
100
AcDbEntity
  8
0
  6
Continuous
 62
     1
100
AcDbCircle
 10
665.94
 20
463.77
 30
0.0
 40
2.5
  0
CIRCLE
  5
22C
330
1F
100
AcDbEntity
  8
0
  6
Continuous
 62
     1
100
AcDbCircle
 10
672.94
 20
463.77
 30
0.0
 40
2.5
  0
CIRCLE
  5
22D
330
1F
100
AcDbEntity
  8
0
  6
Continuous
 62
     1
100
AcDbCircle
 10
662.44
 20
458.77
 30
0.0
 40
2.5
  0
CIRCLE
  5
22E
330
1F
100
AcDbEntity
  8
0
  6
Continuous
 62
     1
100
AcDbCircle
 10
669.44
 20
458.77
 30
0.0
 40
2.5
  0
CIRCLE
  5
22F
330
1F
100
AcDbEntity
  8
0
  6
Continuous
 62
     1
100
AcDbCircle
 10
665.94
 20
453.77
 30
0.0
 40
2.5
  0
CIRCLE
  5
230
330
1F
100
AcDbEntity
  8
0
  6
Continuous
 62
     1
100
AcDbCircle
 10
672.94
 20
453.77
 30
0.0
 40
2.5
  0
CIRCLE
  5
231
330
1F
100
AcDbEntity
  8
0
  6
Continuous
 62
     1
100
AcDbCircle
 10
662.44
 20
448.77
 30
0.0
 40
2.5
  0
CIRCLE
  5
232
330
1F
100
AcDbEntity
  8
0
  6
Continuous
 62
     1
100
AcDbCircle
 10
669.44
 20
448.77
 30
0.0
 40
2.5
  0
CIRCLE
  5
233
330
1F
100
AcDbEntity
  8
0
  6
Continuous
 62
     1
100
AcDbCircle
 10
658.94
 20
473.77
 30
0.0
 40
2.5
  0
CIRCLE
  5
234
330
1F
100
AcDbEntity
  8
0
  6
Continuous
 62
     1
100
AcDbCircle
 10
658.94
 20
463.77
 30
0.0
 40
2.5
  0
CIRCLE
  5
235
330
1F
100
AcDbEntity
  8
0
  6
Continuous
 62
     1
100
AcDbCircle
 10
658.94
 20
453.77
 30
0.0
 40
2.5
  0
CIRCLE
  5
236
330
1F
100
AcDbEntity
  8
0
  6
Continuous
 62
     1
100
AcDbCircle
 10
364.94
 20
443.77
 30
0.0
 40
2.5
  0
CIRCLE
  5
237
330
1F
100
AcDbEntity
  8
0
  6
Continuous
 62
     1
100
AcDbCircle
 10
361.44
 20
438.77
 30
0.0
 40
2.5
  0
CIRCLE
  5
238
330
1F
100
AcDbEntity
  8
0
  6
Continuous
 62
     1
100
AcDbCircle
 10
364.94
 20
473.77
 30
0.0
 40
2.5
  0
CIRCLE
  5
239
330
1F
100
AcDbEntity
  8
0
  6
Continuous
 62
     1
100
AcDbCircle
 10
361.44
 20
468.77
 30
0.0
 40
2.5
  0
CIRCLE
  5
23A
330
1F
100
AcDbEntity
  8
0
  6
Continuous
 62
     1
100
AcDbCircle
 10
364.94
 20
463.77
 30
0.0
 40
2.5
  0
CIRCLE
  5
23B
330
1F
100
AcDbEntity
  8
0
  6
Continuous
 62
     1
100
AcDbCircle
 10
361.44
 20
458.77
 30
0.0
 40
2.5
  0
CIRCLE
  5
23C
330
1F
100
AcDbEntity
  8
0
  6
Continuous
 62
     1
100
AcDbCircle
 10
364.94
 20
453.77
 30
0.0
 40
2.5
  0
CIRCLE
  5
23D
330
1F
100
AcDbEntity
  8
0
  6
Continuous
 62
     1
100
AcDbCircle
 10
361.44
 20
448.77
 30
0.0
 40
2.5
  0
CIRCLE
  5
23E
330
1F
100
AcDbEntity
  8
0
  6
Continuous
 62
     1
100
AcDbCircle
 10
357.94
 20
443.77
 30
0.0
 40
2.5
  0
CIRCLE
  5
23F
330
1F
100
AcDbEntity
  8
0
  6
Continuous
 62
     1
100
AcDbCircle
 10
354.44
 20
438.77
 30
0.0
 40
2.5
  0
CIRCLE
  5
240
330
1F
100
AcDbEntity
  8
0
  6
Continuous
 62
     1
100
AcDbCircle
 10
350.94
 20
443.77
 30
0.0
 40
2.5
  0
CIRCLE
  5
241
330
1F
100
AcDbEntity
  8
0
  6
Continuous
 62
     1
100
AcDbCircle
 10
357.94
 20
473.77
 30
0.0
 40
2.5
  0
CIRCLE
  5
242
330
1F
100
AcDbEntity
  8
0
  6
Continuous
 62
     1
100
AcDbCircle
 10
354.44
 20
468.77
 30
0.0
 40
2.5
  0
CIRCLE
  5
243
330
1F
100
AcDbEntity
  8
0
  6
Continuous
 62
     1
100
AcDbCircle
 10
357.94
 20
463.77
 30
0.0
 40
2.5
  0
CIRCLE
  5
244
330
1F
100
AcDbEntity
  8
0
  6
Continuous
 62
     1
100
AcDbCircle
 10
354.44
 20
458.77
 30
0.0
 40
2.5
  0
CIRCLE
  5
245
330
1F
100
AcDbEntity
  8
0
  6
Continuous
 62
     1
100
AcDbCircle
 10
357.94
 20
453.77
 30
0.0
 40
2.5
  0
CIRCLE
  5
246
330
1F
100
AcDbEntity
  8
0
  6
Continuous
 62
     1
100
AcDbCircle
 10
354.44
 20
448.77
 30
0.0
 40
2.5
  0
CIRCLE
  5
247
330
1F
100
AcDbEntity
  8
0
  6
Continuous
 62
     1
100
AcDbCircle
 10
350.94
 20
473.77
 30
0.0
 40
2.5
  0
CIRCLE
  5
248
330
1F
100
AcDbEntity
  8
0
  6
Continuous
 62
     1
100
AcDbCircle
 10
350.94
 20
463.77
 30
0.0
 40
2.5
  0
CIRCLE
  5
249
330
1F
100
AcDbEntity
  8
0
  6
Continuous
 62
     1
100
AcDbCircle
 10
350.94
 20
453.77
 30
0.0
 40
2.5
  0
LWPOLYLINE
  5
24C
330
1F
100
AcDbEntity
  8
0
  6
Continuous
 62
     2
100
AcDbPolyline
 90
     4
 70
   128
 43
0.0
 10
271.94
 20
530.27
 42
0.0
 10
281.94
 20
530.27
 42
1.0
 10
281.94
 20
537.27
 42
0.0
 10
271.94
 20
537.27
 42
0.0
  0
LWPOLYLINE
  5
24F
330
1F
100
AcDbEntity
  8
0
  6
Continuous
 62
     2
100
AcDbPolyline
 90
     4
 70
   128
 43
0.0
 10
751.94
 20
537.27
 42
0.0
 10
741.94
 20
537.27
 42
1.0
 10
741.94
 20
530.27
 42
0.0
 10
751.94
 20
530.27
 42
0.0
  0
LINE
  5
250
330
1F
100
AcDbEntity
  8
2
  6
Continuous
 62
     1
100
AcDbLine
 10
396.59
 20
558.27
 30
0.0
 11
399.94
 21
558.27
 31
0.0
  0
LINE
  5
251
330
1F
100
AcDbEntity
  8
0
  6
Continuous
 62
     2
100
AcDbLine
 10
751.94
 20
537.27
 30
0.0
 11
751.94
 21
556.27
 31
0.0
  0
ARC
  5
252
330
1F
100
AcDbEntity
  8
2
  6
Continuous
 62
     2
100
AcDbCircle
 10
749.94
 20
556.27
 30
0.0
 40
2.0
100
AcDbArc
 50
0.0
 51
90.0
  0
LINE
  5
253
330
1F
100
AcDbEntity
  8
0
  6
Continuous
 62
     2
100
AcDbLine
 10
271.94
 20
556.27
 30
0.0
 11
271.94
 21
537.27
 31
0.0
  0
LINE
  5
254
330
1F
100
AcDbEntity
  8
0
  6
Continuous
 62
     2
100
AcDbLine
 10
749.94
 20
558.27
 30
0.0
 11
273.94
 21
558.27
 31
0.0
  0
ARC
  5
255
330
1F
100
AcDbEntity
  8
2
  6
Continuous
 62
     2
100
AcDbCircle
 10
273.94
 20
556.27
 30
0.0
 40
2.0
100
AcDbArc
 50
90.0
 51
180.0
  0
LINE
  5
256
330
1F
100
AcDbEntity
  8
0
  6
Continuous
 62
     2
100
AcDbLine
 10
751.94
 20
437.27
 30
0.0
 11
751.94
 21
530.27
 31
0.0
  0
LINE
  5
257
330
1F
100
AcDbEntity
  8
0
  6
Continuous
 62
     2
100
AcDbLine
 10
271.94
 20
530.27
 30
0.0
 11
271.94
 21
437.27
 31
0.0
  0
CIRCLE
  5
258
330
1F
100
AcDbEntity
  8
15
  6
Continuous
 62
     1
100
AcDbCircle
 10
593.94
 20
521.77
 30
0.0
 40
3.0
  0
CIRCLE
  5
259
330
1F
100
AcDbEntity
  8
15
  6
Continuous
 62
     1
100
AcDbCircle
 10
593.94
 20
528.77
 30
0.0
 40
3.0
  0
CIRCLE
  5
25A
330
1F
100
AcDbEntity
  8
15
  6
Continuous
 62
     1
100
AcDbCircle
 10
593.94
 20
514.77
 30
0.0
 40
3.0
  0
CIRCLE
  5
25B
330
1F
100
AcDbEntity
  8
15
  6
Continuous
 62
     1
100
AcDbCircle
 10
593.94
 20
507.77
 30
0.0
 40
3.0
  0
LINE
  5
25C
330
1F
100
AcDbEntity
  8
0
  6
Continuous
 62
     1
100
AcDbLine
 10
663.94
 20
528.77
 30
0.0
 11
679.94
 21
528.77
 31
0.0
  0
CIRCLE
  5
25D
330
1F
100
AcDbEntity
  8
0
  6
Continuous
 62
     1
100
AcDbCircle
 10
623.94
 20
483.77
 30
0.0
 40
2.5
  0
CIRCLE
  5
25E
330
1F
100
AcDbEntity
  8
0
  6
Continuous
 62
     1
100
AcDbCircle
 10
630.94
 20
483.77
 30
0.0
 40
2.5
  0
CIRCLE
  5
25F
330
1F
100
AcDbEntity
  8
0
  6
Continuous
 62
     1
100
AcDbCircle
 10
620.44
 20
478.77
 30
0.0
 40
2.5
  0
CIRCLE
  5
260
330
1F
100
AcDbEntity
  8
0
  6
Continuous
 62
     1
100
AcDbCircle
 10
627.44
 20
478.77
 30
0.0
 40
2.5
  0
CIRCLE
  5
261
330
1F
100
AcDbEntity
  8
0
  6
Continuous
 62
     1
100
AcDbCircle
 10
616.94
 20
483.77
 30
0.0
 40
2.5
  0
CIRCLE
  5
262
330
1F
100
AcDbEntity
  8
0
  6
Continuous
 62
     1
100
AcDbCircle
 10
613.44
 20
478.77
 30
0.0
 40
2.5
  0
CIRCLE
  5
263
330
1F
100
AcDbEntity
  8
0
  6
Continuous
 62
     1
100
AcDbCircle
 10
602.94
 20
483.77
 30
0.0
 40
2.5
  0
CIRCLE
  5
264
330
1F
100
AcDbEntity
  8
0
  6
Continuous
 62
     1
100
AcDbCircle
 10
609.94
 20
483.77
 30
0.0
 40
2.5
  0
CIRCLE
  5
265
330
1F
100
AcDbEntity
  8
0
  6
Continuous
 62
     1
100
AcDbCircle
 10
599.44
 20
478.77
 30
0.0
 40
2.5
  0
CIRCLE
  5
266
330
1F
100
AcDbEntity
  8
0
  6
Continuous
 62
     1
100
AcDbCircle
 10
606.44
 20
478.77
 30
0.0
 40
2.5
  0
CIRCLE
  5
267
330
1F
100
AcDbEntity
  8
0
  6
Continuous
 62
     1
100
AcDbCircle
 10
595.94
 20
483.77
 30
0.0
 40
2.5
  0
CIRCLE
  5
268
330
1F
100
AcDbEntity
  8
0
  6
Continuous
 62
     1
100
AcDbCircle
 10
592.44
 20
478.77
 30
0.0
 40
2.5
  0
CIRCLE
  5
269
330
1F
100
AcDbEntity
  8
0
  6
Continuous
 62
     1
100
AcDbCircle
 10
581.94
 20
483.77
 30
0.0
 40
2.5
  0
CIRCLE
  5
26A
330
1F
100
AcDbEntity
  8
0
  6
Continuous
 62
     1
100
AcDbCircle
 10
588.94
 20
483.77
 30
0.0
 40
2.5
  0
CIRCLE
  5
26B
330
1F
100
AcDbEntity
  8
0
  6
Continuous
 62
     1
100
AcDbCircle
 10
578.44
 20
478.77
 30
0.0
 40
2.5
  0
CIRCLE
  5
26C
330
1F
100
AcDbEntity
  8
0
  6
Continuous
 62
     1
100
AcDbCircle
 10
585.44
 20
478.77
 30
0.0
 40
2.5
  0
CIRCLE
  5
26D
330
1F
100
AcDbEntity
  8
0
  6
Continuous
 62
     1
100
AcDbCircle
 10
574.94
 20
483.77
 30
0.0
 40
2.5
  0
CIRCLE
  5
26E
330
1F
100
AcDbEntity
  8
0
  6
Continuous
 62
     1
100
AcDbCircle
 10
571.44
 20
478.77
 30
0.0
 40
2.5
  0
CIRCLE
  5
26F
330
1F
100
AcDbEntity
  8
0
  6
Continuous
 62
     1
100
AcDbCircle
 10
560.94
 20
483.77
 30
0.0
 40
2.5
  0
CIRCLE
  5
270
330
1F
100
AcDbEntity
  8
0
  6
Continuous
 62
     1
100
AcDbCircle
 10
567.94
 20
483.77
 30
0.0
 40
2.5
  0
CIRCLE
  5
271
330
1F
100
AcDbEntity
  8
0
  6
Continuous
 62
     1
100
AcDbCircle
 10
557.44
 20
478.77
 30
0.0
 40
2.5
  0
CIRCLE
  5
272
330
1F
100
AcDbEntity
  8
0
  6
Continuous
 62
     1
100
AcDbCircle
 10
564.44
 20
478.77
 30
0.0
 40
2.5
  0
CIRCLE
  5
273
330
1F
100
AcDbEntity
  8
0
  6
Continuous
 62
     1
100
AcDbCircle
 10
553.94
 20
483.77
 30
0.0
 40
2.5
  0
CIRCLE
  5
274
330
1F
100
AcDbEntity
  8
0
  6
Continuous
 62
     1
100
AcDbCircle
 10
550.44
 20
478.77
 30
0.0
 40
2.5
  0
CIRCLE
  5
275
330
1F
100
AcDbEntity
  8
0
  6
Continuous
 62
     1
100
AcDbCircle
 10
539.94
 20
483.77
 30
0.0
 40
2.5
  0
CIRCLE
  5
276
330
1F
100
AcDbEntity
  8
0
  6
Continuous
 62
     1
100
AcDbCircle
 10
546.94
 20
483.77
 30
0.0
 40
2.5
  0
CIRCLE
  5
277
330
1F
100
AcDbEntity
  8
0
  6
Continuous
 62
     1
100
AcDbCircle
 10
536.44
 20
478.77
 30
0.0
 40
2.5
  0
CIRCLE
  5
278
330
1F
100
AcDbEntity
  8
0
  6
Continuous
 62
     1
100
AcDbCircle
 10
543.44
 20
478.77
 30
0.0
 40
2.5
  0
CIRCLE
  5
279
330
1F
100
AcDbEntity
  8
0
  6
Continuous
 62
     1
100
AcDbCircle
 10
532.94
 20
483.77
 30
0.0
 40
2.5
  0
CIRCLE
  5
27A
330
1F
100
AcDbEntity
  8
0
  6
Continuous
 62
     1
100
AcDbCircle
 10
529.44
 20
478.77
 30
0.0
 40
2.5
  0
CIRCLE
  5
27B
330
1F
100
AcDbEntity
  8
0
  6
Continuous
 62
     1
100
AcDbCircle
 10
518.94
 20
483.77
 30
0.0
 40
2.5
  0
CIRCLE
  5
27C
330
1F
100
AcDbEntity
  8
0
  6
Continuous
 62
     1
100
AcDbCircle
 10
525.94
 20
483.77
 30
0.0
 40
2.5
  0
CIRCLE
  5
27D
330
1F
100
AcDbEntity
  8
0
  6
Continuous
 62
     1
100
AcDbCircle
 10
515.44
 20
478.77
 30
0.0
 40
2.5
  0
CIRCLE
  5
27E
330
1F
100
AcDbEntity
  8
0
  6
Continuous
 62
     1
100
AcDbCircle
 10
522.44
 20
478.77
 30
0.0
 40
2.5
  0
CIRCLE
  5
27F
330
1F
100
AcDbEntity
  8
0
  6
Continuous
 62
     1
100
AcDbCircle
 10
511.94
 20
483.77
 30
0.0
 40
2.5
  0
CIRCLE
  5
280
330
1F
100
AcDbEntity
  8
0
  6
Continuous
 62
     1
100
AcDbCircle
 10
508.44
 20
478.77
 30
0.0
 40
2.5
  0
CIRCLE
  5
281
330
1F
100
AcDbEntity
  8
0
  6
Continuous
 62
     1
100
AcDbCircle
 10
497.94
 20
483.77
 30
0.0
 40
2.5
  0
CIRCLE
  5
282
330
1F
100
AcDbEntity
  8
0
  6
Continuous
 62
     1
100
AcDbCircle
 10
504.94
 20
483.77
 30
0.0
 40
2.5
  0
CIRCLE
  5
283
330
1F
100
AcDbEntity
  8
0
  6
Continuous
 62
     1
100
AcDbCircle
 10
494.44
 20
478.77
 30
0.0
 40
2.5
  0
CIRCLE
  5
284
330
1F
100
AcDbEntity
  8
0
  6
Continuous
 62
     1
100
AcDbCircle
 10
501.44
 20
478.77
 30
0.0
 40
2.5
  0
CIRCLE
  5
285
330
1F
100
AcDbEntity
  8
0
  6
Continuous
 62
     1
100
AcDbCircle
 10
490.94
 20
483.77
 30
0.0
 40
2.5
  0
CIRCLE
  5
286
330
1F
100
AcDbEntity
  8
0
  6
Continuous
 62
     1
100
AcDbCircle
 10
487.44
 20
478.77
 30
0.0
 40
2.5
  0
CIRCLE
  5
287
330
1F
100
AcDbEntity
  8
0
  6
Continuous
 62
     1
100
AcDbCircle
 10
476.94
 20
483.77
 30
0.0
 40
2.5
  0
CIRCLE
  5
288
330
1F
100
AcDbEntity
  8
0
  6
Continuous
 62
     1
100
AcDbCircle
 10
483.94
 20
483.77
 30
0.0
 40
2.5
  0
CIRCLE
  5
289
330
1F
100
AcDbEntity
  8
0
  6
Continuous
 62
     1
100
AcDbCircle
 10
473.44
 20
478.77
 30
0.0
 40
2.5
  0
CIRCLE
  5
28A
330
1F
100
AcDbEntity
  8
0
  6
Continuous
 62
     1
100
AcDbCircle
 10
480.44
 20
478.77
 30
0.0
 40
2.5
  0
CIRCLE
  5
28B
330
1F
100
AcDbEntity
  8
0
  6
Continuous
 62
     1
100
AcDbCircle
 10
469.94
 20
483.77
 30
0.0
 40
2.5
  0
CIRCLE
  5
28C
330
1F
100
AcDbEntity
  8
0
  6
Continuous
 62
     1
100
AcDbCircle
 10
466.44
 20
478.77
 30
0.0
 40
2.5
  0
CIRCLE
  5
28D
330
1F
100
AcDbEntity
  8
0
  6
Continuous
 62
     1
100
AcDbCircle
 10
455.94
 20
483.77
 30
0.0
 40
2.5
  0
CIRCLE
  5
28E
330
1F
100
AcDbEntity
  8
0
  6
Continuous
 62
     1
100
AcDbCircle
 10
462.94
 20
483.77
 30
0.0
 40
2.5
  0
CIRCLE
  5
28F
330
1F
100
AcDbEntity
  8
0
  6
Continuous
 62
     1
100
AcDbCircle
 10
452.44
 20
478.77
 30
0.0
 40
2.5
  0
CIRCLE
  5
290
330
1F
100
AcDbEntity
  8
0
  6
Continuous
 62
     1
100
AcDbCircle
 10
459.44
 20
478.77
 30
0.0
 40
2.5
  0
CIRCLE
  5
291
330
1F
100
AcDbEntity
  8
0
  6
Continuous
 62
     1
100
AcDbCircle
 10
448.94
 20
483.77
 30
0.0
 40
2.5
  0
CIRCLE
  5
292
330
1F
100
AcDbEntity
  8
0
  6
Continuous
 62
     1
100
AcDbCircle
 10
445.44
 20
478.77
 30
0.0
 40
2.5
  0
CIRCLE
  5
293
330
1F
100
AcDbEntity
  8
0
  6
Continuous
 62
     1
100
AcDbCircle
 10
434.94
 20
483.77
 30
0.0
 40
2.5
  0
CIRCLE
  5
294
330
1F
100
AcDbEntity
  8
0
  6
Continuous
 62
     1
100
AcDbCircle
 10
441.94
 20
483.77
 30
0.0
 40
2.5
  0
CIRCLE
  5
295
330
1F
100
AcDbEntity
  8
0
  6
Continuous
 62
     1
100
AcDbCircle
 10
431.44
 20
478.77
 30
0.0
 40
2.5
  0
CIRCLE
  5
296
330
1F
100
AcDbEntity
  8
0
  6
Continuous
 62
     1
100
AcDbCircle
 10
438.44
 20
478.77
 30
0.0
 40
2.5
  0
CIRCLE
  5
297
330
1F
100
AcDbEntity
  8
0
  6
Continuous
 62
     1
100
AcDbCircle
 10
427.94
 20
483.77
 30
0.0
 40
2.5
  0
CIRCLE
  5
298
330
1F
100
AcDbEntity
  8
0
  6
Continuous
 62
     1
100
AcDbCircle
 10
424.44
 20
478.77
 30
0.0
 40
2.5
  0
CIRCLE
  5
299
330
1F
100
AcDbEntity
  8
0
  6
Continuous
 62
     1
100
AcDbCircle
 10
413.94
 20
483.77
 30
0.0
 40
2.5
  0
CIRCLE
  5
29A
330
1F
100
AcDbEntity
  8
0
  6
Continuous
 62
     1
100
AcDbCircle
 10
420.94
 20
483.77
 30
0.0
 40
2.5
  0
CIRCLE
  5
29B
330
1F
100
AcDbEntity
  8
0
  6
Continuous
 62
     1
100
AcDbCircle
 10
410.44
 20
478.77
 30
0.0
 40
2.5
  0
CIRCLE
  5
29C
330
1F
100
AcDbEntity
  8
0
  6
Continuous
 62
     1
100
AcDbCircle
 10
417.44
 20
478.77
 30
0.0
 40
2.5
  0
CIRCLE
  5
29D
330
1F
100
AcDbEntity
  8
0
  6
Continuous
 62
     1
100
AcDbCircle
 10
406.94
 20
483.77
 30
0.0
 40
2.5
  0
CIRCLE
  5
29E
330
1F
100
AcDbEntity
  8
0
  6
Continuous
 62
     1
100
AcDbCircle
 10
403.44
 20
478.77
 30
0.0
 40
2.5
  0
CIRCLE
  5
29F
330
1F
100
AcDbEntity
  8
0
  6
Continuous
 62
     1
100
AcDbCircle
 10
399.94
 20
483.77
 30
0.0
 40
2.5
  0
CIRCLE
  5
2A0
330
1F
100
AcDbEntity
  8
0
  6
Continuous
 62
     1
100
AcDbCircle
 10
396.44
 20
478.77
 30
0.0
 40
2.5
  0
CIRCLE
  5
2A1
330
1F
100
AcDbEntity
  8
0
  6
Continuous
 62
     1
100
AcDbCircle
 10
392.94
 20
483.77
 30
0.0
 40
2.5
  0
CIRCLE
  5
2A2
330
1F
100
AcDbEntity
  8
0
  6
Continuous
 62
     1
100
AcDbCircle
 10
651.94
 20
483.77
 30
0.0
 40
2.5
  0
CIRCLE
  5
2A3
330
1F
100
AcDbEntity
  8
0
  6
Continuous
 62
     1
100
AcDbCircle
 10
658.94
 20
483.77
 30
0.0
 40
2.5
  0
CIRCLE
  5
2A4
330
1F
100
AcDbEntity
  8
0
  6
Continuous
 62
     1
100
AcDbCircle
 10
648.44
 20
478.77
 30
0.0
 40
2.5
  0
CIRCLE
  5
2A5
330
1F
100
AcDbEntity
  8
0
  6
Continuous
 62
     1
100
AcDbCircle
 10
655.44
 20
478.77
 30
0.0
 40
2.5
  0
CIRCLE
  5
2A6
330
1F
100
AcDbEntity
  8
0
  6
Continuous
 62
     1
100
AcDbCircle
 10
644.94
 20
483.77
 30
0.0
 40
2.5
  0
CIRCLE
  5
2A7
330
1F
100
AcDbEntity
  8
0
  6
Continuous
 62
     1
100
AcDbCircle
 10
641.44
 20
478.77
 30
0.0
 40
2.5
  0
CIRCLE
  5
2A8
330
1F
100
AcDbEntity
  8
0
  6
Continuous
 62
     1
100
AcDbCircle
 10
637.94
 20
483.77
 30
0.0
 40
2.5
  0
CIRCLE
  5
2A9
330
1F
100
AcDbEntity
  8
0
  6
Continuous
 62
     1
100
AcDbCircle
 10
634.44
 20
478.77
 30
0.0
 40
2.5
  0
CIRCLE
  5
2AA
330
1F
100
AcDbEntity
  8
0
  6
Continuous
 62
     1
100
AcDbCircle
 10
385.94
 20
483.77
 30
0.0
 40
2.5
  0
CIRCLE
  5
2AB
330
1F
100
AcDbEntity
  8
0
  6
Continuous
 62
     1
100
AcDbCircle
 10
382.44
 20
478.77
 30
0.0
 40
2.5
  0
CIRCLE
  5
2AC
330
1F
100
AcDbEntity
  8
0
  6
Continuous
 62
     1
100
AcDbCircle
 10
389.44
 20
478.77
 30
0.0
 40
2.5
  0
CIRCLE
  5
2AD
330
1F
100
AcDbEntity
  8
0
  6
Continuous
 62
     1
100
AcDbCircle
 10
378.94
 20
483.77
 30
0.0
 40
2.5
  0
CIRCLE
  5
2AE
330
1F
100
AcDbEntity
  8
0
  6
Continuous
 62
     1
100
AcDbCircle
 10
375.44
 20
478.77
 30
0.0
 40
2.5
  0
CIRCLE
  5
2AF
330
1F
100
AcDbEntity
  8
0
  6
Continuous
 62
     1
100
AcDbCircle
 10
371.94
 20
483.77
 30
0.0
 40
2.5
  0
CIRCLE
  5
2B0
330
1F
100
AcDbEntity
  8
0
  6
Continuous
 62
     1
100
AcDbCircle
 10
368.44
 20
478.77
 30
0.0
 40
2.5
  0
CIRCLE
  5
2B1
330
1F
100
AcDbEntity
  8
0
  6
Continuous
 62
     1
100
AcDbCircle
 10
364.94
 20
483.77
 30
0.0
 40
2.5
  0
CIRCLE
  5
2B2
330
1F
100
AcDbEntity
  8
0
  6
Continuous
 62
     1
100
AcDbCircle
 10
665.94
 20
483.77
 30
0.0
 40
2.5
  0
CIRCLE
  5
2B3
330
1F
100
AcDbEntity
  8
0
  6
Continuous
 62
     1
100
AcDbCircle
 10
672.94
 20
483.77
 30
0.0
 40
2.5
  0
CIRCLE
  5
2B4
330
1F
100
AcDbEntity
  8
0
  6
Continuous
 62
     1
100
AcDbCircle
 10
662.44
 20
478.77
 30
0.0
 40
2.5
  0
CIRCLE
  5
2B5
330
1F
100
AcDbEntity
  8
0
  6
Continuous
 62
     1
100
AcDbCircle
 10
669.44
 20
478.77
 30
0.0
 40
2.5
  0
CIRCLE
  5
2B6
330
1F
100
AcDbEntity
  8
0
  6
Continuous
 62
     1
100
AcDbCircle
 10
658.94
 20
483.77
 30
0.0
 40
2.5
  0
CIRCLE
  5
2B7
330
1F
100
AcDbEntity
  8
0
  6
Continuous
 62
     1
100
AcDbCircle
 10
364.94
 20
483.77
 30
0.0
 40
2.5
  0
CIRCLE
  5
2B8
330
1F
100
AcDbEntity
  8
0
  6
Continuous
 62
     1
100
AcDbCircle
 10
361.44
 20
478.77
 30
0.0
 40
2.5
  0
CIRCLE
  5
2B9
330
1F
100
AcDbEntity
  8
0
  6
Continuous
 62
     1
100
AcDbCircle
 10
357.94
 20
483.77
 30
0.0
 40
2.5
  0
CIRCLE
  5
2BA
330
1F
100
AcDbEntity
  8
0
  6
Continuous
 62
     1
100
AcDbCircle
 10
354.44
 20
478.77
 30
0.0
 40
2.5
  0
CIRCLE
  5
2BB
330
1F
100
AcDbEntity
  8
0
  6
Continuous
 62
     1
100
AcDbCircle
 10
350.94
 20
483.77
 30
0.0
 40
2.5
  0
LWPOLYLINE
  5
2BD
330
1F
100
AcDbEntity
  8
0
  6
Continuous
 62
     1
100
AcDbPolyline
 90
     4
 70
   129
 43
0.0
 10
357.34
 20
502.67
 10
372.54
 20
502.67
 10
372.54
 20
527.87
 10
357.34
 20
527.87
  0
LWPOLYLINE
  5
2BF
330
1F
100
AcDbEntity
  8
0
  6
Continuous
 62
     1
100
AcDbPolyline
 90
     4
 70
   129
 43
0.0
 10
359.94
 20
506.27
 10
369.94
 20
506.27
 10
369.94
 20
524.27
 10
359.94
 20
524.27
  0
CIRCLE
  5
2C0
330
1F
100
AcDbEntity
  8
0
  6
Continuous
 62
     1
100
AcDbCircle
 10
364.94
 20
519.77
 30
0.0
 40
0.5
  0
LINE
  5
2C2
330
1F
100
AcDbEntity
  8
0
  6
LTYPE1
 62
     1
100
AcDbLine
 10
359.94
 20
515.27
 30
0.0
 11
369.94
 21
515.27
 31
0.0
  0
LINE
  5
2C3
330
1F
100
AcDbEntity
  8
0
  6
Continuous
 62
     2
100
AcDbLine
 10
870.34
 20
409.27
 30
0.0
 11
870.34
 21
558.27
 31
0.0
  0
LINE
  5
2C4
330
1F
100
AcDbEntity
  8
0
  6
Continuous
 62
     2
100
AcDbLine
 10
870.34
 20
413.27
 30
0.0
 11
1267.34
 21
413.27
 31
0.0
  0
LINE
  5
2C5
330
1F
100
AcDbEntity
  8
0
  6
Continuous
 62
     2
100
AcDbLine
 10
870.34
 20
554.27
 30
0.0
 11
870.34
 21
413.27
 31
0.0
  0
LINE
  5
2C6
330
1F
100
AcDbEntity
  8
0
  6
Continuous
 62
     2
100
AcDbLine
 10
1266.34
 20
553.27
 30
0.0
 11
1267.34
 21
553.27
 31
0.0
  0
LINE
  5
2C7
330
1F
100
AcDbEntity
  8
0
  6
Continuous
 62
     2
100
AcDbLine
 10
1266.34
 20
554.27
 30
0.0
 11
1266.34
 21
553.27
 31
0.0
  0
LWPOLYLINE
  5
2C9
330
1F
100
AcDbEntity
  8
0
  6
Continuous
 62
     2
100
AcDbPolyline
 90
     4
 70
   129
 43
0.0
 10
870.34
 20
413.27
 10
1266.34
 20
413.27
 10
1266.34
 20
553.27
 10
870.34
 20
553.27
  0
LWPOLYLINE
  5
2CB
330
1F
100
AcDbEntity
  8
0
  6
Continuous
 62
     2
100
AcDbPolyline
 90
     4
 70
   129
 43
0.0
 10
870.34
 20
553.27
 10
1266.34
 20
553.27
 10
1266.34
 20
554.27
 10
870.34
 20
554.27
  0
LWPOLYLINE
  5
2CD
330
1F
100
AcDbEntity
  8
0
  6
Continuous
 62
     2
100
AcDbPolyline
 90
     4
 70
   129
 43
0.0
 10
1266.34
 20
413.27
 10
1267.34
 20
413.27
 10
1267.34
 20
553.27
 10
1266.34
 20
553.27
  0
LINE
  5
2CE
330
1F
100
AcDbEntity
  8
0
  6
Continuous
 62
     2
100
AcDbLine
 10
870.34
 20
530.27
 30
0.0
 11
870.34
 21
537.27
 31
0.0
  0
LINE
  5
2CF
330
1F
100
AcDbEntity
  8
0
  6
Continuous
 62
     2
100
AcDbLine
 10
870.34
 20
430.27
 30
0.0
 11
870.34
 21
437.27
 31
0.0
  0
LWPOLYLINE
  5
2D1
330
1F
100
AcDbEntity
  8
0
  6
Continuous
 62
     1
100
AcDbPolyline
 90
     4
 70
   129
 43
0.0
 10
661.19
 20
506.74918472
 10
682.69
 20
506.74918472
 10
682.69
 20
512.74918472
 10
661.19
 20
512.74918472
  0
LWPOLYLINE
  5
2D3
330
1F
100
AcDbEntity
  8
0
  6
Continuous
 62
     1
100
AcDbPolyline
 90
     4
 70
   129
 43
0.0
 10
677.19
 20
506.74918472
 10
682.69
 20
506.74918472
 10
682.69
 20
512.74918472
 10
677.19
 20
512.74918472
  0
LWPOLYLINE
  5
2D5
330
1F
100
AcDbEntity
  8
0
  6
Continuous
 62
     1
100
AcDbPolyline
 90
     4
 70
   129
 43
0.0
 10
661.19
 20
506.74918472
 10
666.69
 20
506.74918472
 10
666.69
 20
512.74918472
 10
661.19
 20
512.74918472
  0
LWPOLYLINE
  5
2D7
330
1F
100
AcDbEntity
  8
0
  6
Continuous
 62
     1
100
AcDbPolyline
 90
     3
 70
   128
 43
0.0
 10
661.19
 20
512.74918472
 10
666.69
 20
512.74918472
 10
666.69
 20
521.77
  0
LINE
  5
2D8
330
1F
100
AcDbEntity
  8
0
  6
Continuous
 62
     1
100
AcDbLine
 10
661.19
 20
521.77
 30
0.0
 11
661.19
 21
512.74918472
 31
0.0
  0
LWPOLYLINE
  5
2DA
330
1F
100
AcDbEntity
  8
0
  6
Continuous
 62
     1
100
AcDbPolyline
 90
     3
 70
   128
 43
0.0
 10
677.19
 20
512.74918472
 10
682.69
 20
512.74918472
 10
682.69
 20
521.77
  0
LINE
  5
2DB
330
1F
100
AcDbEntity
  8
0
  6
Continuous
 62
     1
100
AcDbLine
 10
677.19
 20
521.77
 30
0.0
 11
677.19
 21
512.74918472
 31
0.0
  0
LINE
  5
2DC
330
1F
100
AcDbEntity
  8
0
  6
Continuous
 62
     1
100
AcDbLine
 10
661.19
 20
528.207196595
 30
0.0
 11
661.19
 21
521.77
 31
0.0
  0
LINE
  5
2DD
330
1F
100
AcDbEntity
  8
0
  6
Continuous
 62
     1
100
AcDbLine
 10
666.69
 20
521.77
 30
0.0
 11
666.69
 21
528.77
 31
0.0
  0
LINE
  5
2DE
330
1F
100
AcDbEntity
  8
0
  6
Continuous
 62
     1
100
AcDbLine
 10
677.19
 20
528.77
 30
0.0
 11
677.19
 21
521.63
 31
0.0
  0
LINE
  5
2DF
330
1F
100
AcDbEntity
  8
0
  6
Continuous
 62
     1
100
AcDbLine
 10
682.69
 20
521.77
 30
0.0
 11
682.69
 21
528.207196595
 31
0.0
  0
ARC
  5
2E0
330
1F
100
AcDbEntity
  8
0
  6
Continuous
 62
     1
100
AcDbCircle
 10
663.94
 20
521.77
 30
0.0
 40
7.0
100
AcDbArc
 50
90.0
 51
246.868
  0
LINE
  5
2E1
330
1F
100
AcDbEntity
  8
0
  6
Continuous
 62
     1
100
AcDbLine
 10
666.69
 20
514.77
 30
0.0
 11
677.19
 21
514.77
 31
0.0
  0
ARC
  5
2E2
330
1F
100
AcDbEntity
  8
0
  6
Continuous
 62
     1
100
AcDbCircle
 10
679.94
 20
521.77
 30
0.0
 40
7.0
100
AcDbArc
 50
293.132
 51
90.0
  0
LWPOLYLINE
  5
2E4
330
1F
100
AcDbEntity
  8
0
  6
Continuous
 62
     1
100
AcDbPolyline
 90
     4
 70
   129
 43
0.0
 10
1267.34
 20
532.27
 10
1267.34
 20
514.27
 10
1283.64
 20
514.27
 10
1283.64
 20
532.27
  0
LINE
  5
2E5
330
1F
100
AcDbEntity
  8
0
  6
Continuous
 62
     1
100
AcDbLine
 10
1269.34
 20
532.27
 30
0.0
 11
1275.74
 21
528.27
 31
0.0
  0
LINE
  5
2E6
330
1F
100
AcDbEntity
  8
0
  6
Continuous
 62
     1
100
AcDbLine
 10
1275.74
 20
528.27
 30
0.0
 11
1275.74
 21
518.27
 31
0.0
  0
LINE
  5
2E7
330
1F
100
AcDbEntity
  8
0
  6
Continuous
 62
     1
100
AcDbLine
 10
1275.74
 20
518.27
 30
0.0
 11
1269.34
 21
514.27
 31
0.0
  0
LINE
  5
2E8
330
1F
100
AcDbEntity
  8
0
  6
Continuous
 62
     1
100
AcDbLine
 10
1269.14
 20
468.27
 30
0.0
 11
1269.14
 21
499.17
 31
0.0
  0
LWPOLYLINE
  5
2EA
330
1F
100
AcDbEntity
  8
0
  6
Continuous
 62
     1
100
AcDbPolyline
 90
     4
 70
   129
 43
0.0
 10
1268.96
 20
508.02
 10
1268.96
 20
500.02
 10
1269.46
 20
500.02
 10
1269.46
 20
508.02
  0
LINE
  5
2EB
330
1F
100
AcDbEntity
  8
0
  6
Continuous
 62
     1
100
AcDbLine
 10
1270.16
 20
501.02
 30
0.0
 11
1269.46
 21
501.02
 31
0.0
  0
LWPOLYLINE
  5
2ED
330
1F
100
AcDbEntity
  8
0
  6
Continuous
 62
     1
100
AcDbPolyline
 90
     3
 70
   128
 43
0.0
 10
1269.46
 20
507.02
 10
1270.16
 20
507.02
 10
1270.16
 20
501.02
  0
LINE
  5
2EE
330
1F
100
AcDbEntity
  8
0
  6
Continuous
 62
     1
100
AcDbLine
 10
1269.46
 20
503.62
 30
0.0
 11
1270.16
 21
504.42
 31
0.0
  0
ARC
  5
2EF
330
1F
100
AcDbEntity
  8
0
  6
Continuous
 62
     1
100
AcDbCircle
 10
1270.16
 20
505.02
 30
0.0
 40
2.0
100
AcDbArc
 50
0.0
 51
90.0
  0
ARC
  5
2F0
330
1F
100
AcDbEntity
  8
0
  6
Continuous
 62
     1
100
AcDbCircle
 10
1270.16
 20
503.02
 30
0.0
 40
2.0
100
AcDbArc
 50
270.0
 51
0.0
  0
LINE
  5
2F1
330
1F
100
AcDbEntity
  8
0
  6
Continuous
 62
     1
100
AcDbLine
 10
1272.16
 20
503.02
 30
0.0
 11
1272.16
 21
505.02
 31
0.0
  0
LINE
  5
2F2
330
1F
100
AcDbEntity
  8
0
  6
Continuous
 62
     1
100
AcDbLine
 10
1272.16
 20
504.02
 30
0.0
 11
1270.96
 21
505.22
 31
0.0
  0
LINE
  5
2F3
330
1F
100
AcDbEntity
  8
0
  6
Continuous
 62
     1
100
AcDbLine
 10
1272.16
 20
504.02
 30
0.0
 11
1270.96
 21
502.82
 31
0.0
  0
LINE
  5
2F4
330
1F
100
AcDbEntity
  8
0
  6
Continuous
 62
     1
100
AcDbLine
 10
1270.74
 20
500.17
 30
0.0
 11
1270.74
 21
501.17
 31
0.0
  0
ARC
  5
2F5
330
1F
100
AcDbEntity
  8
0
  6
Continuous
 62
     1
100
AcDbCircle
 10
1268.14
 20
506.97
 30
0.0
 40
0.8
100
AcDbArc
 50
90.0
 51
180.0
  0
LINE
  5
2F6
330
1F
100
AcDbEntity
  8
0
  6
Continuous
 62
     1
100
AcDbLine
 10
1268.14
 20
507.77
 30
0.0
 11
1268.14
 21
507.77
 31
0.0
  0
LINE
  5
2F7
330
1F
100
AcDbEntity
  8
0
  6
Continuous
 62
     1
100
AcDbLine
 10
1268.94
 20
502.27
 30
0.0
 11
1268.94
 21
506.97
 31
0.0
  0
ARC
  5
2F8
330
1F
100
AcDbEntity
  8
0
  6
Continuous
 62
     1
100
AcDbCircle
 10
1268.14
 20
506.97
 30
0.0
 40
0.8
100
AcDbArc
 50
0.0
 51
90.0
  0
LINE
  5
2F9
330
1F
100
AcDbEntity
  8
0
  6
Continuous
 62
     1
100
AcDbLine
 10
1267.34
 20
506.97
 30
0.0
 11
1267.34
 21
501.564061623
 31
0.0
  0
ARC
  5
2FA
330
1F
100
AcDbEntity
  8
0
  6
Continuous
 62
     1
100
AcDbCircle
 10
1268.14
 20
501.564061623
 30
0.0
 40
0.8
100
AcDbArc
 50
180.0
 51
220.364536573
  0
LINE
  5
2FB
330
1F
100
AcDbEntity
  8
0
  6
Continuous
 62
     1
100
AcDbLine
 10
1270.74
 20
496.975938377
 30
0.0
 11
1270.74
 21
468.27
 31
0.0
  0
LINE
  5
2FC
330
1F
100
AcDbEntity
  8
0
  6
Continuous
 62
     1
100
AcDbLine
 10
1267.530448546
 20
501.045942887
 30
0.0
 11
1270.549551454
 21
497.494057113
 31
0.0
  0
ARC
  5
2FD
330
1F
100
AcDbEntity
  8
0
  6
Continuous
 62
     1
100
AcDbCircle
 10
1269.94
 20
496.975938377
 30
0.0
 40
0.8
100
AcDbArc
 50
0.0
 51
40.364536573
  0
LINE
  5
2FE
330
1F
100
AcDbEntity
  8
0
  6
Continuous
 62
     1
100
AcDbLine
 10
1272.34
 20
468.27
 30
0.0
 11
1272.34
 21
497.975938377
 31
0.0
  0
LINE
  5
2FF
330
1F
100
AcDbEntity
  8
0
  6
Continuous
 62
     1
100
AcDbLine
 10
1272.149551454
 20
498.494057113
 30
0.0
 11
1270.0195
 21
501.0
 31
0.0
  0
ARC
  5
300
330
1F
100
AcDbEntity
  8
0
  6
Continuous
 62
     1
100
AcDbCircle
 10
1271.54
 20
497.975938377
 30
0.0
 40
0.8
100
AcDbArc
 50
0.0
 51
40.364536573
  0
LINE
  5
301
330
1F
100
AcDbEntity
  8
0
  6
Continuous
 62
     1
100
AcDbLine
 10
1269.14
 20
468.27
 30
0.0
 11
1269.14
 21
437.37
 31
0.0
  0
LWPOLYLINE
  5
303
330
1F
100
AcDbEntity
  8
0
  6
Continuous
 62
     1
100
AcDbPolyline
 90
     4
 70
   129
 43
0.0
 10
1268.96
 20
428.52
 10
1268.96
 20
436.52
 10
1269.46
 20
436.52
 10
1269.46
 20
428.52
  0
LINE
  5
304
330
1F
100
AcDbEntity
  8
0
  6
Continuous
 62
     1
100
AcDbLine
 10
1270.16
 20
435.52
 30
0.0
 11
1269.46
 21
435.52
 31
0.0
  0
LWPOLYLINE
  5
306
330
1F
100
AcDbEntity
  8
0
  6
Continuous
 62
     1
100
AcDbPolyline
 90
     3
 70
   128
 43
0.0
 10
1269.46
 20
429.52
 10
1270.16
 20
429.52
 10
1270.16
 20
435.52
  0
LINE
  5
307
330
1F
100
AcDbEntity
  8
0
  6
Continuous
 62
     1
100
AcDbLine
 10
1269.46
 20
432.92
 30
0.0
 11
1270.16
 21
432.12
 31
0.0
  0
ARC
  5
308
330
1F
100
AcDbEntity
  8
0
  6
Continuous
 62
     1
100
AcDbCircle
 10
1270.16
 20
431.52
 30
0.0
 40
2.0
100
AcDbArc
 50
270.0
 51
0.0
  0
ARC
  5
309
330
1F
100
AcDbEntity
  8
0
  6
Continuous
 62
     1
100
AcDbCircle
 10
1270.16
 20
433.52
 30
0.0
 40
2.0
100
AcDbArc
 50
0.0
 51
90.0
  0
LINE
  5
30A
330
1F
100
AcDbEntity
  8
0
  6
Continuous
 62
     1
100
AcDbLine
 10
1272.16
 20
433.52
 30
0.0
 11
1272.16
 21
431.52
 31
0.0
  0
LINE
  5
30B
330
1F
100
AcDbEntity
  8
0
  6
Continuous
 62
     1
100
AcDbLine
 10
1272.16
 20
432.52
 30
0.0
 11
1270.96
 21
431.32
 31
0.0
  0
LINE
  5
30C
330
1F
100
AcDbEntity
  8
0
  6
Continuous
 62
     1
100
AcDbLine
 10
1272.16
 20
432.52
 30
0.0
 11
1270.96
 21
433.72
 31
0.0
  0
LINE
  5
30D
330
1F
100
AcDbEntity
  8
0
  6
Continuous
 62
     1
100
AcDbLine
 10
1270.74
 20
436.37
 30
0.0
 11
1270.74
 21
435.37
 31
0.0
  0
ARC
  5
30E
330
1F
100
AcDbEntity
  8
0
  6
Continuous
 62
     1
100
AcDbCircle
 10
1268.14
 20
429.57
 30
0.0
 40
0.8
100
AcDbArc
 50
180.0
 51
270.0
  0
LINE
  5
30F
330
1F
100
AcDbEntity
  8
0
  6
Continuous
 62
     1
100
AcDbLine
 10
1268.14
 20
428.77
 30
0.0
 11
1268.14
 21
428.77
 31
0.0
  0
LINE
  5
310
330
1F
100
AcDbEntity
  8
0
  6
Continuous
 62
     1
100
AcDbLine
 10
1268.94
 20
434.27
 30
0.0
 11
1268.94
 21
429.57
 31
0.0
  0
ARC
  5
311
330
1F
100
AcDbEntity
  8
0
  6
Continuous
 62
     1
100
AcDbCircle
 10
1268.14
 20
429.57
 30
0.0
 40
0.8
100
AcDbArc
 50
270.0
 51
0.0
  0
LINE
  5
312
330
1F
100
AcDbEntity
  8
0
  6
Continuous
 62
     1
100
AcDbLine
 10
1267.34
 20
429.57
 30
0.0
 11
1267.34
 21
434.975938377
 31
0.0
  0
ARC
  5
313
330
1F
100
AcDbEntity
  8
0
  6
Continuous
 62
     1
100
AcDbCircle
 10
1268.14
 20
434.975938377
 30
0.0
 40
0.8
100
AcDbArc
 50
139.635463427
 51
180.0
  0
LINE
  5
314
330
1F
100
AcDbEntity
  8
0
  6
Continuous
 62
     1
100
AcDbLine
 10
1270.74
 20
439.564061623
 30
0.0
 11
1270.74
 21
468.27
 31
0.0
  0
LINE
  5
315
330
1F
100
AcDbEntity
  8
0
  6
Continuous
 62
     1
100
AcDbLine
 10
1267.530448546
 20
435.494057113
 30
0.0
 11
1270.549551454
 21
439.045942887
 31
0.0
  0
ARC
  5
316
330
1F
100
AcDbEntity
  8
0
  6
Continuous
 62
     1
100
AcDbCircle
 10
1269.94
 20
439.564061623
 30
0.0
 40
0.8
100
AcDbArc
 50
319.635463427
 51
0.0
  0
LINE
  5
317
330
1F
100
AcDbEntity
  8
0
  6
Continuous
 62
     1
100
AcDbLine
 10
1272.34
 20
468.27
 30
0.0
 11
1272.34
 21
438.564061623
 31
0.0
  0
LINE
  5
318
330
1F
100
AcDbEntity
  8
0
  6
Continuous
 62
     1
100
AcDbLine
 10
1272.149551454
 20
438.045942887
 30
0.0
 11
1270.0195
 21
435.54
 31
0.0
  0
ARC
  5
319
330
1F
100
AcDbEntity
  8
0
  6
Continuous
 62
     1
100
AcDbCircle
 10
1271.54
 20
438.564061623
 30
0.0
 40
0.8
100
AcDbArc
 50
319.635463427
 51
0.0
  0
LINE
  5
31A
330
1F
100
AcDbEntity
  8
0
  6
Continuous
 62
     1
100
AcDbLine
 10
910.24
 20
413.19
 30
0.0
 11
908.26
 21
405.27
 31
0.0
  0
LINE
  5
31B
330
1F
100
AcDbEntity
  8
0
  6
Continuous
 62
     1
100
AcDbLine
 10
908.26
 20
405.27
 30
0.0
 11
892.42
 21
405.27
 31
0.0
  0
LINE
  5
31C
330
1F
100
AcDbEntity
  8
0
  6
Continuous
 62
     1
100
AcDbLine
 10
892.42
 20
405.27
 30
0.0
 11
890.44
 21
413.19
 31
0.0
  0
LINE
  5
31D
330
1F
100
AcDbEntity
  8
0
  6
Continuous
 62
     1
100
AcDbLine
 10
1240.24
 20
413.19
 30
0.0
 11
1238.26
 21
405.27
 31
0.0
  0
LINE
  5
31E
330
1F
100
AcDbEntity
  8
0
  6
Continuous
 62
     1
100
AcDbLine
 10
1238.26
 20
405.27
 30
0.0
 11
1222.42
 21
405.27
 31
0.0
  0
LINE
  5
31F
330
1F
100
AcDbEntity
  8
0
  6
Continuous
 62
     1
100
AcDbLine
 10
1222.42
 20
405.27
 30
0.0
 11
1220.44
 21
413.19
 31
0.0
  0
LINE
  5
320
330
1F
100
AcDbEntity
  8
0
  6
Continuous
 62
     1
100
AcDbLine
 10
654.02
 20
405.27
 30
0.0
 11
669.86
 21
405.27
 31
0.0
  0
LINE
  5
321
330
1F
100
AcDbEntity
  8
0
  6
Continuous
 62
     1
100
AcDbLine
 10
354.02
 20
405.27
 30
0.0
 11
369.86
 21
405.27
 31
0.0
  0
LINE
  5
322
330
1F
100
AcDbEntity
  8
0
  6
Continuous
 62
     1
100
AcDbLine
 10
654.02
 20
405.27
 30
0.0
 11
653.02
 21
409.27
 31
0.0
  0
LINE
  5
323
330
1F
100
AcDbEntity
  8
0
  6
Continuous
 62
     1
100
AcDbLine
 10
669.86
 20
405.27
 30
0.0
 11
670.86
 21
409.27
 31
0.0
  0
LINE
  5
324
330
1F
100
AcDbEntity
  8
0
  6
Continuous
 62
     1
100
AcDbLine
 10
354.02
 20
405.27
 30
0.0
 11
353.02
 21
409.27
 31
0.0
  0
LINE
  5
325
330
1F
100
AcDbEntity
  8
0
  6
Continuous
 62
     1
100
AcDbLine
 10
369.86
 20
405.27
 30
0.0
 11
370.86
 21
409.27
 31
0.0
  0
TEXT
  5
326
330
1F
100
AcDbEntity
  8
0
  6
Continuous
 62
     1
100
AcDbText
 10
355.565
 20
530.37
 30
0.0
 40
4.0
  1
ＰＯＷＥＲ
 41
0.9375
  7
KANJI0
100
AcDbText
  0
TEXT
  5
328
330
1F
100
AcDbEntity
  8
0
  6
Continuous
 62
     1
100
AcDbText
 10
599.94
 20
526.77
 30
0.0
 40
4.0
  1
ＰＯＷＥＲ
 41
0.9375
  7
KANJI0
100
AcDbText
  0
TEXT
  5
329
330
1F
100
AcDbEntity
  8
0
  6
Continuous
 62
     1
100
AcDbText
 10
599.94
 20
519.77
 30
0.0
 40
4.0
  1
ＡＬＡＲＭ
 41
0.9375
  7
KANJI0
100
AcDbText
  0
TEXT
  5
32A
330
1F
100
AcDbEntity
  8
0
  6
Continuous
 62
     1
100
AcDbText
 10
599.94
 20
512.77
 30
0.0
 40
4.0
  1
ＯＶＥＲ　ＬＯＡＤ
 41
0.9375
  7
KANJI0
100
AcDbText
  0
TEXT
  5
32B
330
1F
100
AcDbEntity
  8
0
  6
Continuous
 62
     1
100
AcDbText
 10
599.94
 20
505.77
 30
0.0
 40
4.0
  1
ＦＡＮＥＲＲ
 41
0.9375
  7
KANJI0
100
AcDbText
  0
TEXT
  5
32C
330
1F
100
AcDbEntity
  8
0
  6
Continuous
 62
     1
100
AcDbText
 10
660.3
 20
533.77
 30
0.0
 40
4.0
  1
ＯＵＴＰＵＴ
 41
0.9375
  7
KANJI0
100
AcDbText
  0
TEXT
  5
32D
330
1F
100
AcDbEntity
  8
0
  6
Continuous
 62
     1
100
AcDbText
 10
321.94
 20
546.27
 30
0.0
 40
6.0
  1
１ＫＶＡ　　　ＤＣ－ＡＣ　　　Ｉｎｖｅｒｔｅｒ
 41
0.625
  7
KANJI1
100
AcDbText
  0
TEXT
  5
32F
330
1F
100
AcDbEntity
  8
0
  6
Continuous
 62
     1
100
AcDbText
 10
639.94
 20
417.27
 30
0.0
 40
6.0
  1
ＡＬＰＨＡ　ＳＹＳＴＥＭ　ＩＮＣ．
 41
0.625
  7
KANJI1
100
AcDbText
  0
TEXT
  5
330
330
1F
100
AcDbEntity
  8
0
  6
Continuous
 62
     1
100
AcDbText
 10
1870.06
 20
634.67
 30
0.0
 40
3.0
  1
－
 41
1.0
  7
KANJI2
100
AcDbText
  0
LWPOLYLINE
  5
333
330
1F
100
AcDbEntity
  8
0
  6
Continuous
 62
     2
100
AcDbPolyline
 90
     4
 70
   129
 43
0.0
 10
271.94
 20
763.29
 10
751.94
 20
763.29
 10
751.94
 20
765.29
 10
271.94
 20
765.29
  0
LWPOLYLINE
  5
335
330
1F
100
AcDbEntity
  8
0
  6
Continuous
 62
     2
100
AcDbPolyline
 90
     4
 70
   129
 43
0.0
 10
296.94
 20
765.29
 10
726.94
 20
765.29
 10
726.94
 20
1162.29
 10
296.94
 20
1162.29
  0
LINE
  5
336
330
1F
100
AcDbEntity
  8
0
  6
Continuous
 62
     1
100
AcDbLine
 10
406.94
 20
1162.29
 30
0.0
 11
406.94
 21
1188.29
 31
0.0
  0
LWPOLYLINE
  5
338
330
1F
100
AcDbEntity
  8
0
  6
Continuous
 62
     1
100
AcDbPolyline
 90
     3
 70
   128
 43
0.0
 10
345.94
 20
1188.29
 10
345.94
 20
1162.29
 10
406.94
 20
1162.29
  0
LINE
  5
339
330
1F
100
AcDbEntity
  8
0
  6
Continuous
 62
     1
100
AcDbLine
 10
377.94
 20
1175.29
 30
0.0
 11
390.94
 21
1175.29
 31
0.0
  0
LINE
  5
33A
330
1F
100
AcDbEntity
  8
0
  6
Continuous
 62
     1
100
AcDbLine
 10
361.94
 20
1175.29
 30
0.0
 11
374.94
 21
1175.29
 31
0.0
  0
LINE
  5
33B
330
1F
100
AcDbEntity
  8
0
  6
Continuous
 62
     1
100
AcDbLine
 10
361.94
 20
1176.29
 30
0.0
 11
374.94
 21
1176.29
 31
0.0
  0
LINE
  5
33C
330
1F
100
AcDbEntity
  8
0
  6
Continuous
 62
     1
100
AcDbLine
 10
377.94
 20
1176.29
 30
0.0
 11
390.94
 21
1176.29
 31
0.0
  0
LWPOLYLINE
  5
33E
330
1F
100
AcDbEntity
  8
0
  6
Continuous
 62
     1
100
AcDbPolyline
 90
     4
 70
   129
 43
0.0
 10
390.94
 20
1172.29
 10
390.94
 20
1175.29
 10
377.94
 20
1175.29
 10
377.94
 20
1172.29
  0
LWPOLYLINE
  5
340
330
1F
100
AcDbEntity
  8
0
  6
Continuous
 62
     1
100
AcDbPolyline
 90
     4
 70
   129
 43
0.0
 10
374.94
 20
1172.29
 10
374.94
 20
1175.29
 10
361.94
 20
1175.29
 10
361.94
 20
1172.29
  0
LINE
  5
341
330
1F
100
AcDbEntity
  8
0
  6
Continuous
 62
     1
100
AcDbLine
 10
345.94
 20
1188.29
 30
0.0
 11
359.94
 21
1188.29
 31
0.0
  0
LINE
  5
342
330
1F
100
AcDbEntity
  8
0
  6
Continuous
 62
     1
100
AcDbLine
 10
359.94
 20
1188.29
 30
0.0
 11
359.94
 21
1187.29
 31
0.0
  0
LINE
  5
343
330
1F
100
AcDbEntity
  8
0
  6
Continuous
 62
     1
100
AcDbLine
 10
359.94
 20
1187.29
 30
0.0
 11
361.94
 21
1187.29
 31
0.0
  0
LINE
  5
344
330
1F
100
AcDbEntity
  8
0
  6
Continuous
 62
     1
100
AcDbLine
 10
361.94
 20
1187.29
 30
0.0
 11
361.94
 21
1175.29
 31
0.0
  0
LINE
  5
345
330
1F
100
AcDbEntity
  8
0
  6
Continuous
 62
     1
100
AcDbLine
 10
374.94
 20
1175.29
 30
0.0
 11
374.94
 21
1187.29
 31
0.0
  0
LINE
  5
346
330
1F
100
AcDbEntity
  8
0
  6
Continuous
 62
     1
100
AcDbLine
 10
374.94
 20
1187.29
 30
0.0
 11
377.94
 21
1187.29
 31
0.0
  0
LINE
  5
347
330
1F
100
AcDbEntity
  8
0
  6
Continuous
 62
     1
100
AcDbLine
 10
377.94
 20
1187.29
 30
0.0
 11
377.94
 21
1175.29
 31
0.0
  0
LINE
  5
348
330
1F
100
AcDbEntity
  8
0
  6
Continuous
 62
     1
100
AcDbLine
 10
390.94
 20
1175.29
 30
0.0
 11
390.94
 21
1187.29
 31
0.0
  0
LINE
  5
349
330
1F
100
AcDbEntity
  8
0
  6
Continuous
 62
     1
100
AcDbLine
 10
390.94
 20
1187.29
 30
0.0
 11
392.94
 21
1187.29
 31
0.0
  0
LINE
  5
34A
330
1F
100
AcDbEntity
  8
0
  6
Continuous
 62
     1
100
AcDbLine
 10
392.94
 20
1187.29
 30
0.0
 11
392.94
 21
1188.29
 31
0.0
  0
LINE
  5
34B
330
1F
100
AcDbEntity
  8
0
  6
Continuous
 62
     1
100
AcDbLine
 10
392.94
 20
1188.29
 30
0.0
 11
406.94
 21
1188.29
 31
0.0
  0
LWPOLYLINE
  5
34D
330
1F
100
AcDbEntity
  8
0
  6
Continuous
 62
     1
100
AcDbPolyline
 90
     4
 70
   129
 43
0.0
 10
392.94
 20
1185.79
 10
392.94
 20
1187.29
 10
390.94
 20
1187.29
 10
390.94
 20
1185.79
  0
LWPOLYLINE
  5
34F
330
1F
100
AcDbEntity
  8
0
  6
Continuous
 62
     1
100
AcDbPolyline
 90
     4
 70
   129
 43
0.0
 10
392.94
 20
1184.29
 10
392.94
 20
1185.79
 10
390.94
 20
1185.79
 10
390.94
 20
1184.29
  0
LWPOLYLINE
  5
351
330
1F
100
AcDbEntity
  8
0
  6
Continuous
 62
     1
100
AcDbPolyline
 90
     4
 70
   129
 43
0.0
 10
377.94
 20
1184.29
 10
377.94
 20
1185.79
 10
374.94
 20
1185.79
 10
374.94
 20
1184.29
  0
LWPOLYLINE
  5
353
330
1F
100
AcDbEntity
  8
0
  6
Continuous
 62
     1
100
AcDbPolyline
 90
     4
 70
   129
 43
0.0
 10
361.94
 20
1184.29
 10
361.94
 20
1185.79
 10
359.94
 20
1185.79
 10
359.94
 20
1184.29
  0
LWPOLYLINE
  5
355
330
1F
100
AcDbEntity
  8
0
  6
Continuous
 62
     1
100
AcDbPolyline
 90
     4
 70
   129
 43
0.0
 10
361.94
 20
1185.79
 10
361.94
 20
1187.29
 10
359.94
 20
1187.29
 10
359.94
 20
1185.79
  0
LWPOLYLINE
  5
357
330
1F
100
AcDbEntity
  8
0
  6
Continuous
 62
     1
100
AcDbPolyline
 90
     4
 70
   129
 43
0.0
 10
392.94
 20
1185.29
 10
392.94
 20
1188.29
 10
359.94
 20
1188.29
 10
359.94
 20
1185.29
  0
LWPOLYLINE
  5
359
330
1F
100
AcDbEntity
  8
0
  6
Continuous
 62
     1
100
AcDbPolyline
 90
     4
 70
   129
 43
0.0
 10
390.19
 20
1176.29
 10
390.19
 20
1177.29
 10
378.69
 20
1177.29
 10
378.69
 20
1176.29
  0
LWPOLYLINE
  5
35B
330
1F
100
AcDbEntity
  8
0
  6
Continuous
 62
     1
100
AcDbPolyline
 90
     4
 70
   129
 43
0.0
 10
390.19
 20
1177.29
 10
390.19
 20
1178.79
 10
378.69
 20
1178.79
 10
378.69
 20
1177.29
  0
LINE
  5
35C
330
1F
100
AcDbEntity
  8
0
  6
Continuous
 62
     1
100
AcDbLine
 10
379.44
 20
1178.79
 30
0.0
 11
389.44
 21
1178.79
 31
0.0
  0
LINE
  5
35D
330
1F
100
AcDbEntity
  8
0
  6
Continuous
 62
     1
100
AcDbLine
 10
379.44
 20
1179.79
 30
0.0
 11
379.44
 21
1178.79
 31
0.0
  0
ARC
  5
35E
330
1F
100
AcDbEntity
  8
0
  6
Continuous
 62
     1
100
AcDbCircle
 10
381.94
 20
1179.79
 30
0.0
 40
2.5
100
AcDbArc
 50
90.0
 51
180.0
  0
LINE
  5
35F
330
1F
100
AcDbEntity
  8
0
  6
Continuous
 62
     1
100
AcDbLine
 10
386.94
 20
1182.29
 30
0.0
 11
381.94
 21
1182.29
 31
0.0
  0
LINE
  5
360
330
1F
100
AcDbEntity
  8
0
  6
Continuous
 62
     1
100
AcDbLine
 10
389.44
 20
1178.79
 30
0.0
 11
389.44
 21
1179.79
 31
0.0
  0
ARC
  5
361
330
1F
100
AcDbEntity
  8
0
  6
Continuous
 62
     1
100
AcDbCircle
 10
386.94
 20
1179.79
 30
0.0
 40
2.5
100
AcDbArc
 50
0.0
 51
90.0
  0
LINE
  5
362
330
1F
100
AcDbEntity
  8
0
  6
Continuous
 62
     1
100
AcDbLine
 10
384.44
 20
1178.79
 30
0.0
 11
382.94
 21
1177.29
 31
0.0
  0
LINE
  5
363
330
1F
100
AcDbEntity
  8
0
  6
Continuous
 62
     1
100
AcDbLine
 10
385.94
 20
1178.79
 30
0.0
 11
384.44
 21
1177.29
 31
0.0
  0
LINE
  5
364
330
1F
100
AcDbEntity
  8
0
  6
Continuous
 62
     1
100
AcDbLine
 10
374.19
 20
1176.29
 30
0.0
 11
374.19
 21
1177.29
 31
0.0
  0
LWPOLYLINE
  5
366
330
1F
100
AcDbEntity
  8
0
  6
Continuous
 62
     1
100
AcDbPolyline
 90
     3
 70
   128
 43
0.0
 10
374.19
 20
1177.29
 10
362.69
 20
1177.29
 10
362.69
 20
1176.29
  0
LWPOLYLINE
  5
368
330
1F
100
AcDbEntity
  8
0
  6
Continuous
 62
     1
100
AcDbPolyline
 90
     4
 70
   129
 43
0.0
 10
374.19
 20
1177.29
 10
374.19
 20
1178.79
 10
362.69
 20
1178.79
 10
362.69
 20
1177.29
  0
LINE
  5
369
330
1F
100
AcDbEntity
  8
0
  6
Continuous
 62
     1
100
AcDbLine
 10
363.44
 20
1178.79
 30
0.0
 11
373.44
 21
1178.79
 31
0.0
  0
LINE
  5
36A
330
1F
100
AcDbEntity
  8
0
  6
Continuous
 62
     1
100
AcDbLine
 10
363.44
 20
1179.79
 30
0.0
 11
363.44
 21
1178.79
 31
0.0
  0
ARC
  5
36B
330
1F
100
AcDbEntity
  8
0
  6
Continuous
 62
     1
100
AcDbCircle
 10
365.94
 20
1179.79
 30
0.0
 40
2.5
100
AcDbArc
 50
90.0
 51
180.0
  0
LINE
  5
36C
330
1F
100
AcDbEntity
  8
0
  6
Continuous
 62
     1
100
AcDbLine
 10
370.94
 20
1182.29
 30
0.0
 11
365.94
 21
1182.29
 31
0.0
  0
LINE
  5
36D
330
1F
100
AcDbEntity
  8
0
  6
Continuous
 62
     1
100
AcDbLine
 10
373.44
 20
1178.79
 30
0.0
 11
373.44
 21
1179.79
 31
0.0
  0
ARC
  5
36E
330
1F
100
AcDbEntity
  8
0
  6
Continuous
 62
     1
100
AcDbCircle
 10
370.94
 20
1179.79
 30
0.0
 40
2.5
100
AcDbArc
 50
0.0
 51
90.0
  0
LINE
  5
36F
330
1F
100
AcDbEntity
  8
0
  6
Continuous
 62
     1
100
AcDbLine
 10
368.44
 20
1178.79
 30
0.0
 11
366.94
 21
1177.29
 31
0.0
  0
LINE
  5
370
330
1F
100
AcDbEntity
  8
0
  6
Continuous
 62
     1
100
AcDbLine
 10
369.94
 20
1178.79
 30
0.0
 11
368.44
 21
1177.29
 31
0.0
  0
LINE
  5
371
330
1F
100
AcDbEntity
  8
0
  6
Continuous
 62
     1
100
AcDbLine
 10
666.44
 20
1170.69
 30
0.0
 11
657.74
 21
1170.69
 31
0.0
  0
LINE
  5
372
330
1F
100
AcDbEntity
  8
0
  6
Continuous
 62
     1
100
AcDbLine
 10
657.74
 20
1170.69
 30
0.0
 11
657.74
 21
1178.59
 31
0.0
  0
LINE
  5
373
330
1F
100
AcDbEntity
  8
0
  6
Continuous
 62
     1
100
AcDbLine
 10
657.74
 20
1178.59
 30
0.0
 11
655.74
 21
1178.59
 31
0.0
  0
LINE
  5
374
330
1F
100
AcDbEntity
  8
0
  6
Continuous
 62
     1
100
AcDbLine
 10
655.74
 20
1178.59
 30
0.0
 11
655.74
 21
1170.69
 31
0.0
  0
LINE
  5
375
330
1F
100
AcDbEntity
  8
0
  6
Continuous
 62
     1
100
AcDbLine
 10
655.74
 20
1170.69
 30
0.0
 11
646.74
 21
1170.69
 31
0.0
  0
LINE
  5
376
330
1F
100
AcDbEntity
  8
0
  6
Continuous
 62
     1
100
AcDbLine
 10
646.74
 20
1170.69
 30
0.0
 11
646.74
 21
1178.59
 31
0.0
  0
LINE
  5
377
330
1F
100
AcDbEntity
  8
0
  6
Continuous
 62
     1
100
AcDbLine
 10
646.74
 20
1178.59
 30
0.0
 11
644.74
 21
1178.59
 31
0.0
  0
LINE
  5
378
330
1F
100
AcDbEntity
  8
0
  6
Continuous
 62
     1
100
AcDbLine
 10
666.44
 20
1170.69
 30
0.0
 11
666.44
 21
1162.29
 31
0.0
  0
LINE
  5
379
330
1F
100
AcDbEntity
  8
0
  6
Continuous
 62
     1
100
AcDbLine
 10
657.74
 20
1170.69
 30
0.0
 11
657.74
 21
1164.29
 31
0.0
  0
LINE
  5
37A
330
1F
100
AcDbEntity
  8
0
  6
Continuous
 62
     1
100
AcDbLine
 10
657.74
 20
1164.29
 30
0.0
 11
666.44
 21
1164.29
 31
0.0
  0
LINE
  5
37B
330
1F
100
AcDbEntity
  8
0
  6
Continuous
 62
     1
100
AcDbLine
 10
655.74
 20
1170.69
 30
0.0
 11
655.74
 21
1164.29
 31
0.0
  0
LINE
  5
37C
330
1F
100
AcDbEntity
  8
0
  6
Continuous
 62
     1
100
AcDbLine
 10
655.74
 20
1164.29
 30
0.0
 11
646.74
 21
1164.29
 31
0.0
  0
LINE
  5
37D
330
1F
100
AcDbEntity
  8
0
  6
Continuous
 62
     1
100
AcDbLine
 10
646.74
 20
1164.29
 30
0.0
 11
646.74
 21
1170.69
 31
0.0
  0
LINE
  5
37E
330
1F
100
AcDbEntity
  8
0
  6
Continuous
 62
     1
100
AcDbLine
 10
660.09
 20
1170.69
 30
0.0
 11
664.39
 21
1170.69
 31
0.0
  0
LINE
  5
37F
330
1F
100
AcDbEntity
  8
0
  6
Continuous
 62
     1
100
AcDbLine
 10
646.74
 20
1178.59
 30
0.0
 11
644.74
 21
1178.59
 31
0.0
  0
LINE
  5
380
330
1F
100
AcDbEntity
  8
0
  6
Continuous
 62
     1
100
AcDbLine
 10
644.74
 20
1178.59
 30
0.0
 11
644.74
 21
1170.69
 31
0.0
  0
LINE
  5
381
330
1F
100
AcDbEntity
  8
0
  6
Continuous
 62
     1
100
AcDbLine
 10
644.74
 20
1170.69
 30
0.0
 11
635.74
 21
1170.69
 31
0.0
  0
LINE
  5
382
330
1F
100
AcDbEntity
  8
0
  6
Continuous
 62
     1
100
AcDbLine
 10
635.74
 20
1170.69
 30
0.0
 11
635.74
 21
1178.59
 31
0.0
  0
LINE
  5
383
330
1F
100
AcDbEntity
  8
0
  6
Continuous
 62
     1
100
AcDbLine
 10
635.74
 20
1178.59
 30
0.0
 11
633.74
 21
1178.59
 31
0.0
  0
LINE
  5
384
330
1F
100
AcDbEntity
  8
0
  6
Continuous
 62
     1
100
AcDbLine
 10
644.74
 20
1170.69
 30
0.0
 11
644.74
 21
1164.29
 31
0.0
  0
LINE
  5
385
330
1F
100
AcDbEntity
  8
0
  6
Continuous
 62
     1
100
AcDbLine
 10
644.74
 20
1164.29
 30
0.0
 11
635.74
 21
1164.29
 31
0.0
  0
LINE
  5
386
330
1F
100
AcDbEntity
  8
0
  6
Continuous
 62
     1
100
AcDbLine
 10
635.74
 20
1164.29
 30
0.0
 11
635.74
 21
1170.69
 31
0.0
  0
LINE
  5
387
330
1F
100
AcDbEntity
  8
0
  6
Continuous
 62
     1
100
AcDbLine
 10
635.74
 20
1178.59
 30
0.0
 11
633.74
 21
1178.59
 31
0.0
  0
LINE
  5
388
330
1F
100
AcDbEntity
  8
0
  6
Continuous
 62
     1
100
AcDbLine
 10
633.74
 20
1178.59
 30
0.0
 11
633.74
 21
1170.69
 31
0.0
  0
LINE
  5
389
330
1F
100
AcDbEntity
  8
0
  6
Continuous
 62
     1
100
AcDbLine
 10
633.74
 20
1170.69
 30
0.0
 11
624.74
 21
1170.69
 31
0.0
  0
LINE
  5
38A
330
1F
100
AcDbEntity
  8
0
  6
Continuous
 62
     1
100
AcDbLine
 10
624.74
 20
1170.69
 30
0.0
 11
624.74
 21
1178.59
 31
0.0
  0
LINE
  5
38B
330
1F
100
AcDbEntity
  8
0
  6
Continuous
 62
     1
100
AcDbLine
 10
624.74
 20
1178.59
 30
0.0
 11
622.74
 21
1178.59
 31
0.0
  0
LINE
  5
38C
330
1F
100
AcDbEntity
  8
0
  6
Continuous
 62
     1
100
AcDbLine
 10
633.74
 20
1170.69
 30
0.0
 11
633.74
 21
1164.29
 31
0.0
  0
LINE
  5
38D
330
1F
100
AcDbEntity
  8
0
  6
Continuous
 62
     1
100
AcDbLine
 10
633.74
 20
1164.29
 30
0.0
 11
624.74
 21
1164.29
 31
0.0
  0
LINE
  5
38E
330
1F
100
AcDbEntity
  8
0
  6
Continuous
 62
     1
100
AcDbLine
 10
624.74
 20
1164.29
 30
0.0
 11
624.74
 21
1170.69
 31
0.0
  0
LINE
  5
38F
330
1F
100
AcDbEntity
  8
0
  6
Continuous
 62
     1
100
AcDbLine
 10
614.04
 20
1170.69
 30
0.0
 11
622.74
 21
1170.69
 31
0.0
  0
LINE
  5
390
330
1F
100
AcDbEntity
  8
0
  6
Continuous
 62
     1
100
AcDbLine
 10
622.74
 20
1170.69
 30
0.0
 11
622.74
 21
1178.59
 31
0.0
  0
LINE
  5
391
330
1F
100
AcDbEntity
  8
0
  6
Continuous
 62
     1
100
AcDbLine
 10
622.74
 20
1178.59
 30
0.0
 11
624.74
 21
1178.59
 31
0.0
  0
LINE
  5
392
330
1F
100
AcDbEntity
  8
0
  6
Continuous
 62
     1
100
AcDbLine
 10
614.04
 20
1170.69
 30
0.0
 11
614.04
 21
1162.29
 31
0.0
  0
LINE
  5
393
330
1F
100
AcDbEntity
  8
0
  6
Continuous
 62
     1
100
AcDbLine
 10
622.74
 20
1170.69
 30
0.0
 11
622.74
 21
1164.29
 31
0.0
  0
LINE
  5
394
330
1F
100
AcDbEntity
  8
0
  6
Continuous
 62
     1
100
AcDbLine
 10
622.74
 20
1164.29
 30
0.0
 11
614.04
 21
1164.29
 31
0.0
  0
LINE
  5
395
330
1F
100
AcDbEntity
  8
0
  6
Continuous
 62
     1
100
AcDbLine
 10
620.39
 20
1170.69
 30
0.0
 11
616.09
 21
1170.69
 31
0.0
  0
LINE
  5
396
330
1F
100
AcDbEntity
  8
0
  6
Continuous
 62
     1
100
AcDbLine
 10
666.44
 20
1162.29
 30
0.0
 11
614.04
 21
1162.29
 31
0.0
  0
LWPOLYLINE
  5
398
330
1F
100
AcDbEntity
  8
0
  6
Continuous
 62
     1
100
AcDbPolyline
 90
     4
 70
   129
 43
0.0
 10
666.24
 20
1170.69
 10
666.24
 20
1171.69
 10
658.24
 20
1171.69
 10
658.24
 20
1170.69
  0
LWPOLYLINE
  5
39A
330
1F
100
AcDbEntity
  8
0
  6
Continuous
 62
     1
100
AcDbPolyline
 90
     4
 70
   129
 43
0.0
 10
666.24
 20
1171.69
 10
666.24
 20
1172.69
 10
658.24
 20
1172.69
 10
658.24
 20
1171.69
  0
LINE
  5
39B
330
1F
100
AcDbEntity
  8
0
  6
Continuous
 62
     1
100
AcDbLine
 10
658.24
 20
1172.69
 30
0.0
 11
666.24
 21
1172.69
 31
0.0
  0
LWPOLYLINE
  5
39E
330
1F
100
AcDbEntity
  8
0
  6
Continuous
 62
     1
100
AcDbPolyline
 90
     3
 70
   128
 43
0.0
 10
658.24
 20
1172.69
 42
0.0
 10
658.24
 20
1172.69
 42
-0.414213562
 10
660.74
 20
1175.19
 42
0.0
  0
ARC
  5
39F
330
1F
100
AcDbEntity
  8
0
  6
Continuous
 62
     1
100
AcDbCircle
 10
663.74
 20
1172.69
 30
0.0
 40
2.5
100
AcDbArc
 50
0.0
 51
90.0
  0
LINE
  5
3A0
330
1F
100
AcDbEntity
  8
0
  6
Continuous
 62
     1
100
AcDbLine
 10
660.74
 20
1175.19
 30
0.0
 11
663.74
 21
1175.19
 31
0.0
  0
LINE
  5
3A1
330
1F
100
AcDbEntity
  8
0
  6
Continuous
 62
     1
100
AcDbLine
 10
655.24
 20
1170.69
 30
0.0
 11
655.24
 21
1171.69
 31
0.0
  0
LWPOLYLINE
  5
3A3
330
1F
100
AcDbEntity
  8
0
  6
Continuous
 62
     1
100
AcDbPolyline
 90
     3
 70
   128
 43
0.0
 10
655.24
 20
1171.69
 10
647.24
 20
1171.69
 10
647.24
 20
1170.69
  0
LWPOLYLINE
  5
3A5
330
1F
100
AcDbEntity
  8
0
  6
Continuous
 62
     1
100
AcDbPolyline
 90
     4
 70
   129
 43
0.0
 10
655.24
 20
1171.69
 10
655.24
 20
1172.69
 10
647.24
 20
1172.69
 10
647.24
 20
1171.69
  0
LINE
  5
3A6
330
1F
100
AcDbEntity
  8
0
  6
Continuous
 62
     1
100
AcDbLine
 10
647.24
 20
1172.69
 30
0.0
 11
655.24
 21
1172.69
 31
0.0
  0
LWPOLYLINE
  5
3A9
330
1F
100
AcDbEntity
  8
0
  6
Continuous
 62
     1
100
AcDbPolyline
 90
     3
 70
   128
 43
0.0
 10
647.24
 20
1172.69
 42
0.0
 10
647.24
 20
1172.69
 42
-0.414213562
 10
649.74
 20
1175.19
 42
0.0
  0
ARC
  5
3AA
330
1F
100
AcDbEntity
  8
0
  6
Continuous
 62
     1
100
AcDbCircle
 10
652.74
 20
1172.69
 30
0.0
 40
2.5
100
AcDbArc
 50
0.0
 51
90.0
  0
LINE
  5
3AB
330
1F
100
AcDbEntity
  8
0
  6
Continuous
 62
     1
100
AcDbLine
 10
649.74
 20
1175.19
 30
0.0
 11
652.74
 21
1175.19
 31
0.0
  0
LINE
  5
3AC
330
1F
100
AcDbEntity
  8
0
  6
Continuous
 62
     1
100
AcDbLine
 10
655.24
 20
1170.69
 30
0.0
 11
655.24
 21
1171.69
 31
0.0
  0
LWPOLYLINE
  5
3AE
330
1F
100
AcDbEntity
  8
0
  6
Continuous
 62
     1
100
AcDbPolyline
 90
     3
 70
   128
 43
0.0
 10
655.24
 20
1171.69
 10
647.24
 20
1171.69
 10
647.24
 20
1170.69
  0
LWPOLYLINE
  5
3B0
330
1F
100
AcDbEntity
  8
0
  6
Continuous
 62
     1
100
AcDbPolyline
 90
     4
 70
   129
 43
0.0
 10
655.24
 20
1171.69
 10
655.24
 20
1172.69
 10
647.24
 20
1172.69
 10
647.24
 20
1171.69
  0
LINE
  5
3B1
330
1F
100
AcDbEntity
  8
0
  6
Continuous
 62
     1
100
AcDbLine
 10
647.24
 20
1172.69
 30
0.0
 11
655.24
 21
1172.69
 31
0.0
  0
LWPOLYLINE
  5
3B4
330
1F
100
AcDbEntity
  8
0
  6
Continuous
 62
     1
100
AcDbPolyline
 90
     3
 70
   128
 43
0.0
 10
647.24
 20
1172.69
 42
0.0
 10
647.24
 20
1172.69
 42
-0.414213562
 10
649.74
 20
1175.19
 42
0.0
  0
ARC
  5
3B5
330
1F
100
AcDbEntity
  8
0
  6
Continuous
 62
     1
100
AcDbCircle
 10
652.74
 20
1172.69
 30
0.0
 40
2.5
100
AcDbArc
 50
0.0
 51
90.0
  0
LINE
  5
3B6
330
1F
100
AcDbEntity
  8
0
  6
Continuous
 62
     1
100
AcDbLine
 10
649.74
 20
1175.19
 30
0.0
 11
652.74
 21
1175.19
 31
0.0
  0
LINE
  5
3B7
330
1F
100
AcDbEntity
  8
0
  6
Continuous
 62
     1
100
AcDbLine
 10
644.24
 20
1170.69
 30
0.0
 11
644.24
 21
1171.69
 31
0.0
  0
LWPOLYLINE
  5
3B9
330
1F
100
AcDbEntity
  8
0
  6
Continuous
 62
     1
100
AcDbPolyline
 90
     3
 70
   128
 43
0.0
 10
644.24
 20
1171.69
 10
636.24
 20
1171.69
 10
636.24
 20
1170.69
  0
LWPOLYLINE
  5
3BB
330
1F
100
AcDbEntity
  8
0
  6
Continuous
 62
     1
100
AcDbPolyline
 90
     4
 70
   129
 43
0.0
 10
644.24
 20
1171.69
 10
644.24
 20
1172.69
 10
636.24
 20
1172.69
 10
636.24
 20
1171.69
  0
LINE
  5
3BC
330
1F
100
AcDbEntity
  8
0
  6
Continuous
 62
     1
100
AcDbLine
 10
636.24
 20
1172.69
 30
0.0
 11
644.24
 21
1172.69
 31
0.0
  0
LWPOLYLINE
  5
3BF
330
1F
100
AcDbEntity
  8
0
  6
Continuous
 62
     1
100
AcDbPolyline
 90
     3
 70
   128
 43
0.0
 10
636.24
 20
1172.69
 42
0.0
 10
636.24
 20
1172.69
 42
-0.414213562
 10
638.74
 20
1175.19
 42
0.0
  0
ARC
  5
3C0
330
1F
100
AcDbEntity
  8
0
  6
Continuous
 62
     1
100
AcDbCircle
 10
641.74
 20
1172.69
 30
0.0
 40
2.5
100
AcDbArc
 50
0.0
 51
90.0
  0
LINE
  5
3C1
330
1F
100
AcDbEntity
  8
0
  6
Continuous
 62
     1
100
AcDbLine
 10
638.74
 20
1175.19
 30
0.0
 11
641.74
 21
1175.19
 31
0.0
  0
LINE
  5
3C2
330
1F
100
AcDbEntity
  8
0
  6
Continuous
 62
     1
100
AcDbLine
 10
633.24
 20
1170.69
 30
0.0
 11
633.24
 21
1171.69
 31
0.0
  0
LWPOLYLINE
  5
3C4
330
1F
100
AcDbEntity
  8
0
  6
Continuous
 62
     1
100
AcDbPolyline
 90
     3
 70
   128
 43
0.0
 10
633.24
 20
1171.69
 10
625.24
 20
1171.69
 10
625.24
 20
1170.69
  0
LWPOLYLINE
  5
3C6
330
1F
100
AcDbEntity
  8
0
  6
Continuous
 62
     1
100
AcDbPolyline
 90
     4
 70
   129
 43
0.0
 10
633.24
 20
1171.69
 10
633.24
 20
1172.69
 10
625.24
 20
1172.69
 10
625.24
 20
1171.69
  0
LINE
  5
3C7
330
1F
100
AcDbEntity
  8
0
  6
Continuous
 62
     1
100
AcDbLine
 10
625.24
 20
1172.69
 30
0.0
 11
633.24
 21
1172.69
 31
0.0
  0
LWPOLYLINE
  5
3CA
330
1F
100
AcDbEntity
  8
0
  6
Continuous
 62
     1
100
AcDbPolyline
 90
     3
 70
   128
 43
0.0
 10
625.24
 20
1172.69
 42
0.0
 10
625.24
 20
1172.69
 42
-0.414213562
 10
627.74
 20
1175.19
 42
0.0
  0
ARC
  5
3CB
330
1F
100
AcDbEntity
  8
0
  6
Continuous
 62
     1
100
AcDbCircle
 10
630.74
 20
1172.69
 30
0.0
 40
2.5
100
AcDbArc
 50
0.0
 51
90.0
  0
LINE
  5
3CC
330
1F
100
AcDbEntity
  8
0
  6
Continuous
 62
     1
100
AcDbLine
 10
627.74
 20
1175.19
 30
0.0
 11
630.74
 21
1175.19
 31
0.0
  0
LINE
  5
3CD
330
1F
100
AcDbEntity
  8
0
  6
Continuous
 62
     1
100
AcDbLine
 10
622.24
 20
1170.69
 30
0.0
 11
622.24
 21
1171.69
 31
0.0
  0
LWPOLYLINE
  5
3CF
330
1F
100
AcDbEntity
  8
0
  6
Continuous
 62
     1
100
AcDbPolyline
 90
     3
 70
   128
 43
0.0
 10
622.24
 20
1171.69
 10
614.24
 20
1171.69
 10
614.24
 20
1170.69
  0
LWPOLYLINE
  5
3D1
330
1F
100
AcDbEntity
  8
0
  6
Continuous
 62
     1
100
AcDbPolyline
 90
     4
 70
   129
 43
0.0
 10
622.24
 20
1171.69
 10
622.24
 20
1172.69
 10
614.24
 20
1172.69
 10
614.24
 20
1171.69
  0
LINE
  5
3D2
330
1F
100
AcDbEntity
  8
0
  6
Continuous
 62
     1
100
AcDbLine
 10
614.24
 20
1172.69
 30
0.0
 11
622.24
 21
1172.69
 31
0.0
  0
LWPOLYLINE
  5
3D5
330
1F
100
AcDbEntity
  8
0
  6
Continuous
 62
     1
100
AcDbPolyline
 90
     3
 70
   128
 43
0.0
 10
614.24
 20
1172.69
 42
0.0
 10
614.24
 20
1172.69
 42
-0.414213562
 10
616.74
 20
1175.19
 42
0.0
  0
ARC
  5
3D6
330
1F
100
AcDbEntity
  8
0
  6
Continuous
 62
     1
100
AcDbCircle
 10
619.74
 20
1172.69
 30
0.0
 40
2.5
100
AcDbArc
 50
0.0
 51
90.0
  0
LINE
  5
3D7
330
1F
100
AcDbEntity
  8
0
  6
Continuous
 62
     1
100
AcDbLine
 10
616.74
 20
1175.19
 30
0.0
 11
619.74
 21
1175.19
 31
0.0
  0
LINE
  5
3D8
330
1F
100
AcDbEntity
  8
0
  6
Continuous
 62
     1
100
AcDbLine
 10
558.94
 20
1170.29
 30
0.0
 11
527.14
 21
1170.29
 31
0.0
  0
LWPOLYLINE
  5
3DA
330
1F
100
AcDbEntity
  8
0
  6
Continuous
 62
     1
100
AcDbPolyline
 90
     4
 70
   128
 43
0.0
 10
527.14
 20
1170.29
 10
527.14
 20
1162.29
 10
558.94
 20
1162.29
 10
558.94
 20
1170.29
  0
LWPOLYLINE
  5
3DC
330
1F
100
AcDbEntity
  8
0
  6
Continuous
 62
     1
100
AcDbPolyline
 90
     4
 70
   129
 43
0.0
 10
558.94
 20
1165.79
 10
527.14
 20
1165.79
 10
527.14
 20
1162.29
 10
558.94
 20
1162.29
  0
LWPOLYLINE
  5
3DE
330
1F
100
AcDbEntity
  8
0
  6
Continuous
 62
     1
100
AcDbPolyline
 90
     4
 70
   129
 43
0.0
 10
557.44
 20
1170.29
 10
552.39
 20
1170.29
 10
552.39
 20
1162.29
 10
557.44
 20
1162.29
  0
LWPOLYLINE
  5
3E0
330
1F
100
AcDbEntity
  8
0
  6
Continuous
 62
     1
100
AcDbPolyline
 90
     4
 70
   129
 43
0.0
 10
552.39
 20
1170.29
 10
547.34
 20
1170.29
 10
547.34
 20
1162.29
 10
552.39
 20
1162.29
  0
LWPOLYLINE
  5
3E2
330
1F
100
AcDbEntity
  8
0
  6
Continuous
 62
     1
100
AcDbPolyline
 90
     4
 70
   129
 43
0.0
 10
547.34
 20
1170.29
 10
542.29
 20
1170.29
 10
542.29
 20
1162.29
 10
547.34
 20
1162.29
  0
LWPOLYLINE
  5
3E4
330
1F
100
AcDbEntity
  8
0
  6
Continuous
 62
     1
100
AcDbPolyline
 90
     4
 70
   129
 43
0.0
 10
542.29
 20
1170.29
 10
537.24
 20
1170.29
 10
537.24
 20
1162.29
 10
542.29
 20
1162.29
  0
LWPOLYLINE
  5
3E6
330
1F
100
AcDbEntity
  8
0
  6
Continuous
 62
     1
100
AcDbPolyline
 90
     4
 70
   129
 43
0.0
 10
537.24
 20
1170.29
 10
532.19
 20
1170.29
 10
532.19
 20
1162.29
 10
537.24
 20
1162.29
  0
LINE
  5
3E7
330
1F
100
AcDbEntity
  8
0
  6
Continuous
 62
     1
100
AcDbLine
 10
453.94
 20
1162.29
 30
0.0
 11
453.94
 21
1170.29
 31
0.0
  0
LINE
  5
3E8
330
1F
100
AcDbEntity
  8
0
  6
Continuous
 62
     1
100
AcDbLine
 10
453.94
 20
1162.29
 30
0.0
 11
453.94
 21
1165.79
 31
0.0
  0
LWPOLYLINE
  5
3EA
330
1F
100
AcDbEntity
  8
0
  6
Continuous
 62
     1
100
AcDbPolyline
 90
     4
 70
   129
 43
0.0
 10
452.44
 20
1170.29
 10
447.39
 20
1170.29
 10
447.39
 20
1162.29
 10
452.44
 20
1162.29
  0
LWPOLYLINE
  5
3EC
330
1F
100
AcDbEntity
  8
0
  6
Continuous
 62
     1
100
AcDbPolyline
 90
     4
 70
   129
 43
0.0
 10
447.39
 20
1170.29
 10
442.34
 20
1170.29
 10
442.34
 20
1162.29
 10
447.39
 20
1162.29
  0
LINE
  5
3ED
330
1F
100
AcDbEntity
  8
0
  6
Continuous
 62
     1
100
AcDbLine
 10
442.34
 20
1162.29
 30
0.0
 11
442.34
 21
1170.29
 31
0.0
  0
LWPOLYLINE
  5
3EF
330
1F
100
AcDbEntity
  8
0
  6
Continuous
 62
     1
100
AcDbPolyline
 90
     4
 70
   129
 43
0.0
 10
442.34
 20
1162.29
 10
453.94
 20
1162.29
 10
453.94
 20
1170.29
 10
442.34
 20
1170.29
  0
LWPOLYLINE
  5
3F1
330
1F
100
AcDbEntity
  8
0
  6
Continuous
 62
     1
100
AcDbPolyline
 90
     4
 70
   129
 43
0.0
 10
442.34
 20
1162.29
 10
453.94
 20
1162.29
 10
453.94
 20
1165.79
 10
442.34
 20
1165.79
  0
ARC
  5
3F2
330
1F
100
AcDbEntity
  8
0
  6
Continuous
 62
     1
100
AcDbCircle
 10
713.94
 20
732.29
 30
0.0
 40
4.0
100
AcDbArc
 50
180.0
 51
0.0
  0
LWPOLYLINE
  5
3F4
330
1F
100
AcDbEntity
  8
0
  6
Continuous
 62
     1
100
AcDbPolyline
 90
     4
 70
   128
 43
0.0
 10
717.94
 20
732.29
 10
717.94
 20
763.29
 10
709.94
 20
763.29
 10
709.94
 20
732.29
  0
ARC
  5
3F5
330
1F
100
AcDbEntity
  8
0
  6
Continuous
 62
     1
100
AcDbCircle
 10
309.94
 20
732.29
 30
0.0
 40
4.0
100
AcDbArc
 50
180.0
 51
0.0
  0
LWPOLYLINE
  5
3F7
330
1F
100
AcDbEntity
  8
0
  6
Continuous
 62
     1
100
AcDbPolyline
 90
     4
 70
   128
 43
0.0
 10
305.94
 20
732.29
 10
305.94
 20
763.29
 10
313.94
 20
763.29
 10
313.94
 20
732.29
  0
ARC
  5
3F8
330
1F
100
AcDbEntity
  8
0
  6
Continuous
 62
     1
100
AcDbCircle
 10
685.44
 20
748.29
 30
0.0
 40
3.0
100
AcDbArc
 50
270.0
 51
0.0
  0
ARC
  5
3F9
330
1F
100
AcDbEntity
  8
0
  6
Continuous
 62
     1
100
AcDbCircle
 10
685.44
 20
748.29
 30
0.0
 40
7.0
100
AcDbArc
 50
270.0
 51
0.0
  0
LWPOLYLINE
  5
3FB
330
1F
100
AcDbEntity
  8
0
  6
Continuous
 62
     1
100
AcDbPolyline
 90
     4
 70
   128
 43
0.0
 10
692.44
 20
748.29
 10
692.44
 20
763.29
 10
688.44
 20
763.29
 10
688.44
 20
748.29
  0
ARC
  5
3FC
330
1F
100
AcDbEntity
  8
0
  6
Continuous
 62
     1
100
AcDbCircle
 10
658.44
 20
748.29
 30
0.0
 40
3.0
100
AcDbArc
 50
180.0
 51
270.0
  0
ARC
  5
3FD
330
1F
100
AcDbEntity
  8
0
  6
Continuous
 62
     1
100
AcDbCircle
 10
658.44
 20
748.29
 30
0.0
 40
7.0
100
AcDbArc
 50
180.0
 51
270.0
  0
LWPOLYLINE
  5
3FF
330
1F
100
AcDbEntity
  8
0
  6
Continuous
 62
     1
100
AcDbPolyline
 90
     4
 70
   128
 43
0.0
 10
651.44
 20
748.29
 10
651.44
 20
763.29
 10
655.44
 20
763.29
 10
655.44
 20
748.29
  0
LINE
  5
400
330
1F
100
AcDbEntity
  8
0
  6
Continuous
 62
     1
100
AcDbLine
 10
658.44
 20
741.29
 30
0.0
 11
685.44
 21
741.29
 31
0.0
  0
LINE
  5
401
330
1F
100
AcDbEntity
  8
0
  6
Continuous
 62
     1
100
AcDbLine
 10
685.44
 20
745.29
 30
0.0
 11
658.44
 21
745.29
 31
0.0
  0
LWPOLYLINE
  5
403
330
1F
100
AcDbEntity
  8
0
  6
Continuous
 62
     1
100
AcDbPolyline
 90
     4
 70
   129
 43
0.0
 10
357.34
 20
761.79
 10
372.54
 20
761.79
 10
372.54
 20
763.29
 10
357.34
 20
763.29
  0
LWPOLYLINE
  5
405
330
1F
100
AcDbEntity
  8
0
  6
Continuous
 62
     1
100
AcDbPolyline
 90
     4
 70
   129
 43
0.0
 10
359.94
 20
758.79
 10
369.94
 20
758.79
 10
369.94
 20
761.79
 10
359.94
 20
761.79
  0
LINE
  5
406
330
1F
100
AcDbEntity
  8
0
  6
Continuous
 62
     2
100
AcDbLine
 10
296.94
 20
1161.29
 30
0.0
 11
726.94
 21
1161.29
 31
0.0
  0
LINE
  5
407
330
1F
100
AcDbEntity
  8
0
  6
Continuous
 62
     2
100
AcDbLine
 10
1411.74
 20
530.27
 30
0.0
 11
1401.74
 21
530.27
 31
0.0
  0
LINE
  5
408
330
1F
100
AcDbEntity
  8
0
  6
Continuous
 62
     2
100
AcDbLine
 10
1401.74
 20
537.27
 30
0.0
 11
1411.74
 21
537.27
 31
0.0
  0
ARC
  5
409
330
1F
100
AcDbEntity
  8
0
  6
Continuous
 62
     2
100
AcDbCircle
 10
1411.74
 20
533.77
 30
0.0
 40
3.5
100
AcDbArc
 50
270.0
 51
90.0
  0
LINE
  5
40A
330
1F
100
AcDbEntity
  8
0
  6
Continuous
 62
     2
100
AcDbLine
 10
1411.74
 20
430.27
 30
0.0
 11
1401.74
 21
430.27
 31
0.0
  0
LINE
  5
40B
330
1F
100
AcDbEntity
  8
0
  6
Continuous
 62
     2
100
AcDbLine
 10
1401.74
 20
437.27
 30
0.0
 11
1411.74
 21
437.27
 31
0.0
  0
ARC
  5
40C
330
1F
100
AcDbEntity
  8
0
  6
Continuous
 62
     2
100
AcDbCircle
 10
1411.74
 20
433.77
 30
0.0
 40
3.5
100
AcDbArc
 50
270.0
 51
90.0
  0
LINE
  5
40D
330
1F
100
AcDbEntity
  8
0
  6
Continuous
 62
     2
100
AcDbLine
 10
1871.74
 20
530.27
 30
0.0
 11
1881.74
 21
530.27
 31
0.0
  0
LINE
  5
40E
330
1F
100
AcDbEntity
  8
0
  6
Continuous
 62
     2
100
AcDbLine
 10
1881.74
 20
537.27
 30
0.0
 11
1871.74
 21
537.27
 31
0.0
  0
ARC
  5
40F
330
1F
100
AcDbEntity
  8
0
  6
Continuous
 62
     2
100
AcDbCircle
 10
1871.74
 20
533.77
 30
0.0
 40
3.5
100
AcDbArc
 50
90.0
 51
270.0
  0
LINE
  5
410
330
1F
100
AcDbEntity
  8
0
  6
Continuous
 62
     2
100
AcDbLine
 10
1871.74
 20
430.27
 30
0.0
 11
1881.74
 21
430.27
 31
0.0
  0
LINE
  5
411
330
1F
100
AcDbEntity
  8
0
  6
Continuous
 62
     2
100
AcDbLine
 10
1881.74
 20
437.27
 30
0.0
 11
1871.74
 21
437.27
 31
0.0
  0
ARC
  5
412
330
1F
100
AcDbEntity
  8
0
  6
Continuous
 62
     2
100
AcDbCircle
 10
1871.74
 20
433.77
 30
0.0
 40
3.5
100
AcDbArc
 50
90.0
 51
270.0
  0
LINE
  5
413
330
1F
100
AcDbEntity
  8
0
  6
Continuous
 62
     2
100
AcDbLine
 10
1401.74
 20
437.27
 30
0.0
 11
1401.74
 21
530.27
 31
0.0
  0
LINE
  5
414
330
1F
100
AcDbEntity
  8
0
  6
Continuous
 62
     2
100
AcDbLine
 10
1881.74
 20
530.27
 30
0.0
 11
1881.74
 21
437.27
 31
0.0
  0
ARC
  5
415
330
1F
100
AcDbEntity
  8
0
  6
Continuous
 62
     2
100
AcDbCircle
 10
1871.74
 20
433.77
 30
0.0
 40
3.5
100
AcDbArc
 50
90.0
 51
270.0
  0
LINE
  5
416
330
1F
100
AcDbEntity
  8
0
  6
Continuous
 62
     2
100
AcDbLine
 10
1871.74
 20
437.27
 30
0.0
 11
1881.74
 21
437.27
 31
0.0
  0
LWPOLYLINE
  5
419
330
1F
100
AcDbEntity
  8
0
  6
Continuous
 62
     2
100
AcDbPolyline
 90
     4
 70
   128
 43
0.0
 10
1401.74
 20
437.27
 42
0.0
 10
1411.74
 20
437.27
 42
-1.0
 10
1411.74
 20
430.27
 42
0.0
 10
1401.74
 20
430.27
 42
0.0
  0
LINE
  5
41A
330
1F
100
AcDbEntity
  8
0
  6
Continuous
 62
     2
100
AcDbLine
 10
1881.74
 20
430.27
 30
0.0
 11
1871.74
 21
430.27
 31
0.0
  0
LINE
  5
41B
330
1F
100
AcDbEntity
  8
0
  6
Continuous
 62
     2
100
AcDbLine
 10
1401.74
 20
411.27
 30
0.0
 11
1401.74
 21
430.27
 31
0.0
  0
ARC
  5
41C
330
1F
100
AcDbEntity
  8
2
  6
Continuous
 62
     2
100
AcDbCircle
 10
1403.74
 20
411.27
 30
0.0
 40
2.0
100
AcDbArc
 50
180.0
 51
270.0
  0
LINE
  5
41D
330
1F
100
AcDbEntity
  8
0
  6
Continuous
 62
     2
100
AcDbLine
 10
1881.74
 20
430.27
 30
0.0
 11
1881.74
 21
411.27
 31
0.0
  0
LINE
  5
41E
330
1F
100
AcDbEntity
  8
0
  6
Continuous
 62
     2
100
AcDbLine
 10
1879.74
 20
409.27
 30
0.0
 11
1403.74
 21
409.27
 31
0.0
  0
ARC
  5
41F
330
1F
100
AcDbEntity
  8
2
  6
Continuous
 62
     2
100
AcDbCircle
 10
1879.74
 20
411.27
 30
0.0
 40
2.0
100
AcDbArc
 50
270.0
 51
0.0
  0
LWPOLYLINE
  5
422
330
1F
100
AcDbEntity
  8
0
  6
Continuous
 62
     2
100
AcDbPolyline
 90
     4
 70
   128
 43
0.0
 10
1881.74
 20
530.27
 42
0.0
 10
1871.74
 20
530.27
 42
-1.0
 10
1871.74
 20
537.27
 42
0.0
 10
1881.74
 20
537.27
 42
0.0
  0
LWPOLYLINE
  5
425
330
1F
100
AcDbEntity
  8
0
  6
Continuous
 62
     2
100
AcDbPolyline
 90
     4
 70
   128
 43
0.0
 10
1401.74
 20
537.27
 42
0.0
 10
1411.74
 20
537.27
 42
-1.0
 10
1411.74
 20
530.27
 42
0.0
 10
1401.74
 20
530.27
 42
0.0
  0
LINE
  5
426
330
1F
100
AcDbEntity
  8
0
  6
Continuous
 62
     2
100
AcDbLine
 10
1401.74
 20
537.27
 30
0.0
 11
1401.74
 21
556.27
 31
0.0
  0
ARC
  5
427
330
1F
100
AcDbEntity
  8
2
  6
Continuous
 62
     2
100
AcDbCircle
 10
1403.74
 20
556.27
 30
0.0
 40
2.0
100
AcDbArc
 50
90.0
 51
180.0
  0
LINE
  5
428
330
1F
100
AcDbEntity
  8
0
  6
Continuous
 62
     2
100
AcDbLine
 10
1881.74
 20
556.27
 30
0.0
 11
1881.74
 21
537.27
 31
0.0
  0
ARC
  5
429
330
1F
100
AcDbEntity
  8
2
  6
Continuous
 62
     2
100
AcDbCircle
 10
1879.74
 20
556.27
 30
0.0
 40
2.0
100
AcDbArc
 50
0.0
 51
90.0
  0
LINE
  5
42A
330
1F
100
AcDbEntity
  8
0
  6
Continuous
 62
     2
100
AcDbLine
 10
1401.74
 20
437.27
 30
0.0
 11
1401.74
 21
530.27
 31
0.0
  0
LINE
  5
42B
330
1F
100
AcDbEntity
  8
0
  6
Continuous
 62
     2
100
AcDbLine
 10
1881.74
 20
530.27
 30
0.0
 11
1881.74
 21
437.27
 31
0.0
  0
LINE
  5
42C
330
1F
100
AcDbEntity
  8
0
  6
Continuous
 62
     1
100
AcDbLine
 10
1501.64
 20
413.19
 30
0.0
 11
1499.66
 21
405.27
 31
0.0
  0
LINE
  5
42D
330
1F
100
AcDbEntity
  8
0
  6
Continuous
 62
     1
100
AcDbLine
 10
1499.66
 20
405.27
 30
0.0
 11
1483.82
 21
405.27
 31
0.0
  0
LINE
  5
42E
330
1F
100
AcDbEntity
  8
0
  6
Continuous
 62
     1
100
AcDbLine
 10
1483.82
 20
405.27
 30
0.0
 11
1481.84
 21
413.19
 31
0.0
  0
LINE
  5
42F
330
1F
100
AcDbEntity
  8
0
  6
Continuous
 62
     1
100
AcDbLine
 10
1801.64
 20
413.19
 30
0.0
 11
1799.66
 21
405.27
 31
0.0
  0
LINE
  5
430
330
1F
100
AcDbEntity
  8
0
  6
Continuous
 62
     1
100
AcDbLine
 10
1799.66
 20
405.27
 30
0.0
 11
1783.82
 21
405.27
 31
0.0
  0
LINE
  5
431
330
1F
100
AcDbEntity
  8
0
  6
Continuous
 62
     1
100
AcDbLine
 10
1783.82
 20
405.27
 30
0.0
 11
1781.84
 21
413.19
 31
0.0
  0
LINE
  5
432
330
1F
100
AcDbEntity
  8
0
  6
Continuous
 62
     2
100
AcDbLine
 10
1856.74
 20
553.27
 30
0.0
 11
1856.74
 21
554.27
 31
0.0
  0
LINE
  5
433
330
1F
100
AcDbEntity
  8
0
  6
Continuous
 62
     2
100
AcDbLine
 10
1426.74
 20
554.27
 30
0.0
 11
1426.74
 21
553.27
 31
0.0
  0
LINE
  5
434
330
1F
100
AcDbEntity
  8
0
  6
Continuous
 62
     2
100
AcDbLine
 10
1426.74
 20
553.27
 30
0.0
 11
1426.74
 21
413.27
 31
0.0
  0
LINE
  5
435
330
1F
100
AcDbEntity
  8
0
  6
Continuous
 62
     2
100
AcDbLine
 10
1426.74
 20
413.27
 30
0.0
 11
1856.74
 21
413.27
 31
0.0
  0
LINE
  5
436
330
1F
100
AcDbEntity
  8
0
  6
Continuous
 62
     2
100
AcDbLine
 10
1856.74
 20
413.27
 30
0.0
 11
1856.74
 21
553.27
 31
0.0
  0
LINE
  5
437
330
1F
100
AcDbEntity
  8
0
  6
Continuous
 62
     2
100
AcDbLine
 10
1403.74
 20
558.27
 30
0.0
 11
1879.74
 21
558.27
 31
0.0
  0
LINE
  5
438
330
1F
100
AcDbEntity
  8
0
  6
Continuous
 62
     2
100
AcDbLine
 10
1856.74
 20
553.27
 30
0.0
 11
1426.74
 21
553.27
 31
0.0
  0
LINE
  5
439
330
1F
100
AcDbEntity
  8
0
  6
Continuous
 62
     2
100
AcDbLine
 10
1426.74
 20
553.27
 30
0.0
 11
1856.74
 21
553.27
 31
0.0
  0
LINE
  5
43A
330
1F
100
AcDbEntity
  8
0
  6
Continuous
 62
     2
100
AcDbLine
 10
1856.74
 20
554.27
 30
0.0
 11
1426.74
 21
554.27
 31
0.0
  0
ARC
  5
43B
330
1F
100
AcDbEntity
  8
0
  6
Continuous
 62
     1
100
AcDbCircle
 10
1535.44
 20
523.27
 30
0.0
 40
4.75
100
AcDbArc
 50
161.328
 51
198.672
  0
LINE
  5
43C
330
1F
100
AcDbEntity
  8
0
  6
Continuous
 62
     1
100
AcDbLine
 10
1530.94
 20
514.27
 30
0.0
 11
1530.940007483
 21
521.749287224
 31
0.0
  0
LINE
  5
43D
330
1F
100
AcDbEntity
  8
0
  6
Continuous
 62
     1
100
AcDbLine
 10
1530.940007483
 20
524.790712776
 30
0.0
 11
1530.94
 21
532.27
 31
0.0
  0
LINE
  5
43E
330
1F
100
AcDbEntity
  8
0
  6
Continuous
 62
     1
100
AcDbLine
 10
1530.94
 20
532.27
 30
0.0
 11
1528.94
 21
532.27
 31
0.0
  0
LINE
  5
43F
330
1F
100
AcDbEntity
  8
0
  6
Continuous
 62
     1
100
AcDbLine
 10
1530.94
 20
532.27
 30
0.0
 11
1539.64
 21
532.27
 31
0.0
  0
LINE
  5
440
330
1F
100
AcDbEntity
  8
0
  6
Continuous
 62
     1
100
AcDbLine
 10
1539.64
 20
532.27
 30
0.0
 11
1539.64
 21
514.27
 31
0.0
  0
LINE
  5
441
330
1F
100
AcDbEntity
  8
0
  6
Continuous
 62
     1
100
AcDbLine
 10
1539.64
 20
514.27
 30
0.0
 11
1530.94
 21
514.27
 31
0.0
  0
LINE
  5
442
330
1F
100
AcDbEntity
  8
0
  6
Continuous
 62
     1
100
AcDbLine
 10
1530.94
 20
514.27
 30
0.0
 11
1528.94
 21
514.27
 31
0.0
  0
ARC
  5
443
330
1F
100
AcDbEntity
  8
0
  6
Continuous
 62
     1
100
AcDbCircle
 10
1524.44
 20
523.27
 30
0.0
 40
4.75
100
AcDbArc
 50
341.328
 51
18.672
  0
LINE
  5
444
330
1F
100
AcDbEntity
  8
0
  6
Continuous
 62
     1
100
AcDbLine
 10
1528.94
 20
514.27
 30
0.0
 11
1528.94
 21
521.749287224
 31
0.0
  0
LINE
  5
445
330
1F
100
AcDbEntity
  8
0
  6
Continuous
 62
     1
100
AcDbLine
 10
1528.939992517
 20
524.790712776
 30
0.0
 11
1528.939992517
 21
532.27
 31
0.0
  0
CIRCLE
  5
446
330
1F
100
AcDbEntity
  8
0
  6
Continuous
 62
     1
100
AcDbCircle
 10
1524.44
 20
523.27
 30
0.0
 40
4.0
  0
CIRCLE
  5
447
330
1F
100
AcDbEntity
  8
0
  6
Continuous
 62
     1
100
AcDbCircle
 10
1535.44
 20
523.27
 30
0.0
 40
4.0
  0
ARC
  5
448
330
1F
100
AcDbEntity
  8
0
  6
Continuous
 62
     1
100
AcDbCircle
 10
1524.44
 20
523.27
 30
0.0
 40
4.75
100
AcDbArc
 50
161.328
 51
198.672
  0
LINE
  5
449
330
1F
100
AcDbEntity
  8
0
  6
Continuous
 62
     1
100
AcDbLine
 10
1519.94
 20
514.27
 30
0.0
 11
1519.940007483
 21
521.749287224
 31
0.0
  0
LINE
  5
44A
330
1F
100
AcDbEntity
  8
0
  6
Continuous
 62
     1
100
AcDbLine
 10
1519.940007483
 20
524.790712776
 30
0.0
 11
1519.94
 21
532.27
 31
0.0
  0
LINE
  5
44B
330
1F
100
AcDbEntity
  8
0
  6
Continuous
 62
     1
100
AcDbLine
 10
1519.94
 20
532.27
 30
0.0
 11
1517.94
 21
532.27
 31
0.0
  0
LINE
  5
44C
330
1F
100
AcDbEntity
  8
0
  6
Continuous
 62
     1
100
AcDbLine
 10
1519.94
 20
514.27
 30
0.0
 11
1517.94
 21
514.27
 31
0.0
  0
ARC
  5
44D
330
1F
100
AcDbEntity
  8
0
  6
Continuous
 62
     1
100
AcDbCircle
 10
1513.44
 20
523.27
 30
0.0
 40
4.75
100
AcDbArc
 50
341.328
 51
18.672
  0
LINE
  5
44E
330
1F
100
AcDbEntity
  8
0
  6
Continuous
 62
     1
100
AcDbLine
 10
1517.94
 20
514.27
 30
0.0
 11
1517.94
 21
521.749287224
 31
0.0
  0
LINE
  5
44F
330
1F
100
AcDbEntity
  8
0
  6
Continuous
 62
     1
100
AcDbLine
 10
1528.94
 20
532.27
 30
0.0
 11
1517.94
 21
532.27
 31
0.0
  0
LINE
  5
450
330
1F
100
AcDbEntity
  8
0
  6
Continuous
 62
     1
100
AcDbLine
 10
1517.94
 20
532.27
 30
0.0
 11
1517.939992517
 21
524.790712776
 31
0.0
  0
LINE
  5
451
330
1F
100
AcDbEntity
  8
0
  6
Continuous
 62
     1
100
AcDbLine
 10
1519.94
 20
514.27
 30
0.0
 11
1528.94
 21
514.27
 31
0.0
  0
CIRCLE
  5
452
330
1F
100
AcDbEntity
  8
0
  6
Continuous
 62
     1
100
AcDbCircle
 10
1513.44
 20
523.27
 30
0.0
 40
4.0
  0
ARC
  5
453
330
1F
100
AcDbEntity
  8
0
  6
Continuous
 62
     1
100
AcDbCircle
 10
1513.44
 20
523.27
 30
0.0
 40
4.75
100
AcDbArc
 50
161.328
 51
198.672
  0
LINE
  5
454
330
1F
100
AcDbEntity
  8
0
  6
Continuous
 62
     1
100
AcDbLine
 10
1508.94
 20
514.27
 30
0.0
 11
1508.940007483
 21
521.749287224
 31
0.0
  0
LINE
  5
455
330
1F
100
AcDbEntity
  8
0
  6
Continuous
 62
     1
100
AcDbLine
 10
1508.940007483
 20
524.790712776
 30
0.0
 11
1508.94
 21
532.27
 31
0.0
  0
LINE
  5
456
330
1F
100
AcDbEntity
  8
0
  6
Continuous
 62
     1
100
AcDbLine
 10
1508.94
 20
532.27
 30
0.0
 11
1506.94
 21
532.27
 31
0.0
  0
LINE
  5
457
330
1F
100
AcDbEntity
  8
0
  6
Continuous
 62
     1
100
AcDbLine
 10
1508.94
 20
514.27
 30
0.0
 11
1506.94
 21
514.27
 31
0.0
  0
ARC
  5
458
330
1F
100
AcDbEntity
  8
0
  6
Continuous
 62
     1
100
AcDbCircle
 10
1502.44
 20
523.27
 30
0.0
 40
4.75
100
AcDbArc
 50
341.328
 51
18.672
  0
LINE
  5
459
330
1F
100
AcDbEntity
  8
0
  6
Continuous
 62
     1
100
AcDbLine
 10
1506.94
 20
514.27
 30
0.0
 11
1506.94
 21
521.749287224
 31
0.0
  0
LINE
  5
45A
330
1F
100
AcDbEntity
  8
0
  6
Continuous
 62
     1
100
AcDbLine
 10
1517.94
 20
532.27
 30
0.0
 11
1506.94
 21
532.27
 31
0.0
  0
LINE
  5
45B
330
1F
100
AcDbEntity
  8
0
  6
Continuous
 62
     1
100
AcDbLine
 10
1506.94
 20
532.27
 30
0.0
 11
1506.939992517
 21
524.790712776
 31
0.0
  0
LINE
  5
45C
330
1F
100
AcDbEntity
  8
0
  6
Continuous
 62
     1
100
AcDbLine
 10
1508.94
 20
514.27
 30
0.0
 11
1517.94
 21
514.27
 31
0.0
  0
CIRCLE
  5
45D
330
1F
100
AcDbEntity
  8
0
  6
Continuous
 62
     1
100
AcDbCircle
 10
1502.44
 20
523.27
 30
0.0
 40
4.0
  0
ARC
  5
45E
330
1F
100
AcDbEntity
  8
0
  6
Continuous
 62
     1
100
AcDbCircle
 10
1502.44
 20
523.27
 30
0.0
 40
4.75
100
AcDbArc
 50
161.328
 51
198.672
  0
LINE
  5
45F
330
1F
100
AcDbEntity
  8
0
  6
Continuous
 62
     1
100
AcDbLine
 10
1497.94
 20
514.27
 30
0.0
 11
1497.940007483
 21
521.749287224
 31
0.0
  0
LINE
  5
460
330
1F
100
AcDbEntity
  8
0
  6
Continuous
 62
     1
100
AcDbLine
 10
1497.940007483
 20
524.790712776
 30
0.0
 11
1497.94
 21
532.27
 31
0.0
  0
LINE
  5
461
330
1F
100
AcDbEntity
  8
0
  6
Continuous
 62
     1
100
AcDbLine
 10
1497.94
 20
532.27
 30
0.0
 11
1495.94
 21
532.27
 31
0.0
  0
LINE
  5
462
330
1F
100
AcDbEntity
  8
0
  6
Continuous
 62
     1
100
AcDbLine
 10
1497.94
 20
514.27
 30
0.0
 11
1495.94
 21
514.27
 31
0.0
  0
ARC
  5
463
330
1F
100
AcDbEntity
  8
0
  6
Continuous
 62
     1
100
AcDbCircle
 10
1491.44
 20
523.27
 30
0.0
 40
4.75
100
AcDbArc
 50
341.328
 51
18.672
  0
LINE
  5
464
330
1F
100
AcDbEntity
  8
0
  6
Continuous
 62
     1
100
AcDbLine
 10
1495.94
 20
514.27
 30
0.0
 11
1495.94
 21
521.749287224
 31
0.0
  0
LINE
  5
465
330
1F
100
AcDbEntity
  8
0
  6
Continuous
 62
     1
100
AcDbLine
 10
1506.94
 20
532.27
 30
0.0
 11
1495.94
 21
532.27
 31
0.0
  0
LINE
  5
466
330
1F
100
AcDbEntity
  8
0
  6
Continuous
 62
     1
100
AcDbLine
 10
1495.94
 20
532.27
 30
0.0
 11
1495.939992517
 21
524.790712776
 31
0.0
  0
LINE
  5
467
330
1F
100
AcDbEntity
  8
0
  6
Continuous
 62
     1
100
AcDbLine
 10
1497.94
 20
514.27
 30
0.0
 11
1506.94
 21
514.27
 31
0.0
  0
CIRCLE
  5
468
330
1F
100
AcDbEntity
  8
0
  6
Continuous
 62
     1
100
AcDbCircle
 10
1491.44
 20
523.27
 30
0.0
 40
4.0
  0
LINE
  5
469
330
1F
100
AcDbEntity
  8
0
  6
Continuous
 62
     1
100
AcDbLine
 10
1495.94
 20
532.27
 30
0.0
 11
1487.24
 21
532.27
 31
0.0
  0
LINE
  5
46A
330
1F
100
AcDbEntity
  8
0
  6
Continuous
 62
     1
100
AcDbLine
 10
1487.24
 20
532.27
 30
0.0
 11
1487.24
 21
514.27
 31
0.0
  0
LINE
  5
46B
330
1F
100
AcDbEntity
  8
0
  6
Continuous
 62
     1
100
AcDbLine
 10
1487.24
 20
514.27
 30
0.0
 11
1495.94
 21
514.27
 31
0.0
  0
LINE
  5
46C
330
1F
100
AcDbEntity
  8
0
  6
Continuous
 62
     1
100
AcDbLine
 10
1489.318679656
 20
525.391320344
 30
0.0
 11
1493.561320344
 21
521.148679656
 31
0.0
  0
LINE
  5
46D
330
1F
100
AcDbEntity
  8
0
  6
Continuous
 62
     1
100
AcDbLine
 10
1489.318679656
 20
521.148679656
 30
0.0
 11
1493.561320344
 21
525.391320344
 31
0.0
  0
LINE
  5
46E
330
1F
100
AcDbEntity
  8
0
  6
Continuous
 62
     1
100
AcDbLine
 10
1500.318679656
 20
525.391320344
 30
0.0
 11
1504.561320344
 21
521.148679656
 31
0.0
  0
LINE
  5
46F
330
1F
100
AcDbEntity
  8
0
  6
Continuous
 62
     1
100
AcDbLine
 10
1500.318679656
 20
521.148679656
 30
0.0
 11
1504.561320344
 21
525.391320344
 31
0.0
  0
LINE
  5
470
330
1F
100
AcDbEntity
  8
0
  6
Continuous
 62
     1
100
AcDbLine
 10
1511.318679656
 20
525.391320344
 30
0.0
 11
1515.561320344
 21
521.148679656
 31
0.0
  0
LINE
  5
471
330
1F
100
AcDbEntity
  8
0
  6
Continuous
 62
     1
100
AcDbLine
 10
1511.318679656
 20
521.148679656
 30
0.0
 11
1515.561320344
 21
525.391320344
 31
0.0
  0
LINE
  5
472
330
1F
100
AcDbEntity
  8
0
  6
Continuous
 62
     1
100
AcDbLine
 10
1522.318679656
 20
525.391320344
 30
0.0
 11
1526.561320344
 21
521.148679656
 31
0.0
  0
LINE
  5
473
330
1F
100
AcDbEntity
  8
0
  6
Continuous
 62
     1
100
AcDbLine
 10
1522.318679656
 20
521.148679656
 30
0.0
 11
1526.561320344
 21
525.391320344
 31
0.0
  0
LINE
  5
474
330
1F
100
AcDbEntity
  8
0
  6
Continuous
 62
     1
100
AcDbLine
 10
1533.318679656
 20
525.391320344
 30
0.0
 11
1537.561320344
 21
521.148679656
 31
0.0
  0
LINE
  5
475
330
1F
100
AcDbEntity
  8
0
  6
Continuous
 62
     1
100
AcDbLine
 10
1533.318679656
 20
521.148679656
 30
0.0
 11
1537.561320344
 21
525.391320344
 31
0.0
  0
LINE
  5
476
330
1F
100
AcDbEntity
  8
0
  6
Continuous
 62
     1
100
AcDbLine
 10
1530.94
 20
518.27
 30
0.0
 11
1539.64
 21
518.27
 31
0.0
  0
LINE
  5
477
330
1F
100
AcDbEntity
  8
0
  6
Continuous
 62
     1
100
AcDbLine
 10
1539.64
 20
528.27
 30
0.0
 11
1530.94
 21
528.27
 31
0.0
  0
LINE
  5
478
330
1F
100
AcDbEntity
  8
0
  6
Continuous
 62
     1
100
AcDbLine
 10
1519.94
 20
518.27
 30
0.0
 11
1528.64
 21
518.27
 31
0.0
  0
LINE
  5
479
330
1F
100
AcDbEntity
  8
0
  6
Continuous
 62
     1
100
AcDbLine
 10
1528.64
 20
528.27
 30
0.0
 11
1519.94
 21
528.27
 31
0.0
  0
LINE
  5
47A
330
1F
100
AcDbEntity
  8
0
  6
Continuous
 62
     1
100
AcDbLine
 10
1508.940004002
 20
518.27
 30
0.0
 11
1517.640004002
 21
518.27
 31
0.0
  0
LINE
  5
47B
330
1F
100
AcDbEntity
  8
0
  6
Continuous
 62
     1
100
AcDbLine
 10
1517.640004002
 20
528.27
 30
0.0
 11
1508.940004002
 21
528.27
 31
0.0
  0
LINE
  5
47C
330
1F
100
AcDbEntity
  8
0
  6
Continuous
 62
     1
100
AcDbLine
 10
1497.940004002
 20
518.27
 30
0.0
 11
1506.640004002
 21
518.27
 31
0.0
  0
LINE
  5
47D
330
1F
100
AcDbEntity
  8
0
  6
Continuous
 62
     1
100
AcDbLine
 10
1506.640004002
 20
528.27
 30
0.0
 11
1497.940004002
 21
528.27
 31
0.0
  0
LINE
  5
47E
330
1F
100
AcDbEntity
  8
0
  6
Continuous
 62
     1
100
AcDbLine
 10
1487.24
 20
518.27
 30
0.0
 11
1495.94
 21
518.27
 31
0.0
  0
LINE
  5
47F
330
1F
100
AcDbEntity
  8
0
  6
Continuous
 62
     1
100
AcDbLine
 10
1495.94
 20
528.27
 30
0.0
 11
1487.24
 21
528.27
 31
0.0
  0
LINE
  5
480
330
1F
100
AcDbEntity
  8
0
  6
Continuous
 62
     1
100
AcDbLine
 10
1807.74
 20
493.77
 30
0.0
 11
1807.74
 21
506.17
 31
0.0
  0
LINE
  5
481
330
1F
100
AcDbEntity
  8
0
  6
Continuous
 62
     1
100
AcDbLine
 10
1807.74
 20
511.37
 30
0.0
 11
1807.74
 21
523.77
 31
0.0
  0
LINE
  5
482
330
1F
100
AcDbEntity
  8
0
  6
Continuous
 62
     1
100
AcDbLine
 10
1746.74
 20
493.77
 30
0.0
 11
1807.74
 21
493.77
 31
0.0
  0
LINE
  5
483
330
1F
100
AcDbEntity
  8
0
  6
Continuous
 62
     1
100
AcDbLine
 10
1807.74
 20
523.77
 30
0.0
 11
1746.74
 21
523.77
 31
0.0
  0
ARC
  5
484
330
1F
100
AcDbEntity
  8
0
  6
Continuous
 62
     1
100
AcDbCircle
 10
1801.24
 20
508.77
 30
0.0
 40
6.0
100
AcDbArc
 50
90.0
 51
270.0
  0
LINE
  5
485
330
1F
100
AcDbEntity
  8
0
  6
Continuous
 62
     1
100
AcDbLine
 10
1801.24
 20
502.77
 30
0.0
 11
1807.74
 21
502.77
 31
0.0
  0
LINE
  5
486
330
1F
100
AcDbEntity
  8
0
  6
Continuous
 62
     1
100
AcDbLine
 10
1801.24
 20
514.77
 30
0.0
 11
1807.74
 21
514.77
 31
0.0
  0
LINE
  5
487
330
1F
100
AcDbEntity
  8
0
  6
Continuous
 62
     1
100
AcDbLine
 10
1746.74
 20
493.77
 30
0.0
 11
1746.74
 21
506.17
 31
0.0
  0
LINE
  5
488
330
1F
100
AcDbEntity
  8
0
  6
Continuous
 62
     1
100
AcDbLine
 10
1746.74
 20
511.37
 30
0.0
 11
1746.74
 21
523.77
 31
0.0
  0
ARC
  5
489
330
1F
100
AcDbEntity
  8
0
  6
Continuous
 62
     1
100
AcDbCircle
 10
1753.24
 20
508.77
 30
0.0
 40
6.0
100
AcDbArc
 50
270.0
 51
90.0
  0
LINE
  5
48A
330
1F
100
AcDbEntity
  8
0
  6
Continuous
 62
     1
100
AcDbLine
 10
1753.24
 20
502.77
 30
0.0
 11
1746.74
 21
502.77
 31
0.0
  0
LINE
  5
48B
330
1F
100
AcDbEntity
  8
0
  6
Continuous
 62
     1
100
AcDbLine
 10
1753.24
 20
514.77
 30
0.0
 11
1746.74
 21
514.77
 31
0.0
  0
LWPOLYLINE
  5
48D
330
1F
100
AcDbEntity
  8
0
  6
Continuous
 62
     1
100
AcDbPolyline
 90
     4
 70
   129
 43
0.0
 10
1791.74
 20
493.77
 10
1791.74
 20
523.77
 10
1778.74
 20
523.77
 10
1778.74
 20
493.77
  0
LWPOLYLINE
  5
48F
330
1F
100
AcDbEntity
  8
0
  6
Continuous
 62
     1
100
AcDbPolyline
 90
     4
 70
   129
 43
0.0
 10
1775.74
 20
493.77
 10
1775.74
 20
523.77
 10
1762.74
 20
523.77
 10
1762.74
 20
493.77
  0
LINE
  5
490
330
1F
100
AcDbEntity
  8
0
  6
Continuous
 62
     1
100
AcDbLine
 10
1791.74
 20
499.77
 30
0.0
 11
1778.74
 21
499.77
 31
0.0
  0
LINE
  5
491
330
1F
100
AcDbEntity
  8
0
  6
Continuous
 62
     1
100
AcDbLine
 10
1791.74
 20
498.27
 30
0.0
 11
1778.74
 21
498.27
 31
0.0
  0
LINE
  5
492
330
1F
100
AcDbEntity
  8
0
  6
Continuous
 62
     1
100
AcDbLine
 10
1791.74
 20
517.77
 30
0.0
 11
1778.74
 21
517.77
 31
0.0
  0
LINE
  5
493
330
1F
100
AcDbEntity
  8
0
  6
Continuous
 62
     1
100
AcDbLine
 10
1791.74
 20
519.27
 30
0.0
 11
1778.74
 21
519.27
 31
0.0
  0
LINE
  5
494
330
1F
100
AcDbEntity
  8
0
  6
Continuous
 62
     1
100
AcDbLine
 10
1775.74
 20
519.27
 30
0.0
 11
1762.74
 21
519.27
 31
0.0
  0
LINE
  5
495
330
1F
100
AcDbEntity
  8
0
  6
Continuous
 62
     1
100
AcDbLine
 10
1775.74
 20
517.77
 30
0.0
 11
1762.74
 21
517.77
 31
0.0
  0
LINE
  5
496
330
1F
100
AcDbEntity
  8
0
  6
Continuous
 62
     1
100
AcDbLine
 10
1775.74
 20
499.77
 30
0.0
 11
1762.74
 21
499.77
 31
0.0
  0
LINE
  5
497
330
1F
100
AcDbEntity
  8
0
  6
Continuous
 62
     1
100
AcDbLine
 10
1775.74
 20
498.27
 30
0.0
 11
1762.74
 21
498.27
 31
0.0
  0
LINE
  5
498
330
1F
100
AcDbEntity
  8
0
  6
Continuous
 62
     1
100
AcDbLine
 10
1760.74
 20
493.77
 30
0.0
 11
1760.74
 21
523.77
 31
0.0
  0
LINE
  5
499
330
1F
100
AcDbEntity
  8
0
  6
Continuous
 62
     1
100
AcDbLine
 10
1793.74
 20
493.77
 30
0.0
 11
1793.74
 21
523.77
 31
0.0
  0
LINE
  5
49A
330
1F
100
AcDbEntity
  8
0
  6
Continuous
 62
     1
100
AcDbLine
 10
1793.74
 20
522.77
 30
0.0
 11
1791.74
 21
522.77
 31
0.0
  0
LINE
  5
49B
330
1F
100
AcDbEntity
  8
0
  6
Continuous
 62
     1
100
AcDbLine
 10
1778.74
 20
522.77
 30
0.0
 11
1775.74
 21
522.77
 31
0.0
  0
LINE
  5
49C
330
1F
100
AcDbEntity
  8
0
  6
Continuous
 62
     1
100
AcDbLine
 10
1762.74
 20
522.77
 30
0.0
 11
1760.74
 21
522.77
 31
0.0
  0
LINE
  5
49D
330
1F
100
AcDbEntity
  8
0
  6
Continuous
 62
     1
100
AcDbLine
 10
1760.74
 20
494.77
 30
0.0
 11
1762.74
 21
494.77
 31
0.0
  0
LINE
  5
49E
330
1F
100
AcDbEntity
  8
0
  6
Continuous
 62
     1
100
AcDbLine
 10
1775.74
 20
494.77
 30
0.0
 11
1778.74
 21
494.77
 31
0.0
  0
LINE
  5
49F
330
1F
100
AcDbEntity
  8
0
  6
Continuous
 62
     1
100
AcDbLine
 10
1791.74
 20
494.77
 30
0.0
 11
1793.74
 21
494.77
 31
0.0
  0
LINE
  5
4A0
330
1F
100
AcDbEntity
  8
0
  6
Continuous
 62
     1
100
AcDbLine
 10
1791.74
 20
501.77
 30
0.0
 11
1778.74
 21
501.77
 31
0.0
  0
LINE
  5
4A1
330
1F
100
AcDbEntity
  8
0
  6
Continuous
 62
     1
100
AcDbLine
 10
1775.74
 20
501.77
 30
0.0
 11
1762.74
 21
501.77
 31
0.0
  0
LINE
  5
4A2
330
1F
100
AcDbEntity
  8
0
  6
Continuous
 62
     1
100
AcDbLine
 10
1762.74
 20
515.77
 30
0.0
 11
1775.74
 21
515.77
 31
0.0
  0
LINE
  5
4A3
330
1F
100
AcDbEntity
  8
0
  6
Continuous
 62
     1
100
AcDbLine
 10
1778.74
 20
515.77
 30
0.0
 11
1791.74
 21
515.77
 31
0.0
  0
CIRCLE
  5
4A4
330
1F
100
AcDbEntity
  8
0
  6
Continuous
 62
     1
100
AcDbCircle
 10
1785.24
 20
508.77
 30
0.0
 40
5.0
  0
CIRCLE
  5
4A5
330
1F
100
AcDbEntity
  8
0
  6
Continuous
 62
     1
100
AcDbCircle
 10
1769.24
 20
508.77
 30
0.0
 40
5.0
  0
CIRCLE
  5
4A6
330
1F
100
AcDbEntity
  8
0
  6
Continuous
 62
     1
100
AcDbCircle
 10
1785.24
 20
508.77
 30
0.0
 40
5.75
  0
CIRCLE
  5
4A7
330
1F
100
AcDbEntity
  8
0
  6
Continuous
 62
     1
100
AcDbCircle
 10
1769.24
 20
508.77
 30
0.0
 40
5.75
  0
LINE
  5
4A8
330
1F
100
AcDbEntity
  8
0
  6
Continuous
 62
     1
100
AcDbLine
 10
1772.068427125
 20
505.941572875
 30
0.0
 11
1766.411572875
 21
511.598427125
 31
0.0
  0
LINE
  5
4A9
330
1F
100
AcDbEntity
  8
0
  6
Continuous
 62
     1
100
AcDbLine
 10
1766.411572875
 20
505.941572875
 30
0.0
 11
1772.068427125
 21
511.598427125
 31
0.0
  0
LINE
  5
4AA
330
1F
100
AcDbEntity
  8
0
  6
Continuous
 62
     1
100
AcDbLine
 10
1788.068427125
 20
505.941572875
 30
0.0
 11
1782.411572875
 21
511.598427125
 31
0.0
  0
LINE
  5
4AB
330
1F
100
AcDbEntity
  8
0
  6
Continuous
 62
     1
100
AcDbLine
 10
1782.411572875
 20
505.941572875
 30
0.0
 11
1788.068427125
 21
511.598427125
 31
0.0
  0
CIRCLE
  5
4AC
330
1F
100
AcDbEntity
  8
0
  6
Continuous
 62
     1
100
AcDbCircle
 10
1753.24
 20
508.77
 30
0.0
 40
5.0
  0
CIRCLE
  5
4AD
330
1F
100
AcDbEntity
  8
0
  6
Continuous
 62
     1
100
AcDbCircle
 10
1753.24
 20
508.77
 30
0.0
 40
5.75
  0
LINE
  5
4AE
330
1F
100
AcDbEntity
  8
0
  6
Continuous
 62
     1
100
AcDbLine
 10
1756.068427125
 20
505.941572875
 30
0.0
 11
1750.411572875
 21
511.598427125
 31
0.0
  0
LINE
  5
4AF
330
1F
100
AcDbEntity
  8
0
  6
Continuous
 62
     1
100
AcDbLine
 10
1750.411572875
 20
505.941572875
 30
0.0
 11
1756.068427125
 21
511.598427125
 31
0.0
  0
CIRCLE
  5
4B0
330
1F
100
AcDbEntity
  8
0
  6
Continuous
 62
     1
100
AcDbCircle
 10
1801.24
 20
508.77
 30
0.0
 40
5.0
  0
CIRCLE
  5
4B1
330
1F
100
AcDbEntity
  8
0
  6
Continuous
 62
     1
100
AcDbCircle
 10
1801.24
 20
508.77
 30
0.0
 40
5.75
  0
LINE
  5
4B2
330
1F
100
AcDbEntity
  8
0
  6
Continuous
 62
     1
100
AcDbLine
 10
1804.068427125
 20
505.941572875
 30
0.0
 11
1798.411572875
 21
511.598427125
 31
0.0
  0
LINE
  5
4B3
330
1F
100
AcDbEntity
  8
0
  6
Continuous
 62
     1
100
AcDbLine
 10
1798.411572875
 20
505.941572875
 30
0.0
 11
1804.068427125
 21
511.598427125
 31
0.0
  0
LINE
  5
4B4
330
1F
100
AcDbEntity
  8
0
  6
Continuous
 62
     1
100
AcDbLine
 10
1807.74
 20
506.17
 30
0.0
 11
1806.368596299
 21
506.17
 31
0.0
  0
LINE
  5
4B5
330
1F
100
AcDbEntity
  8
0
  6
Continuous
 62
     1
100
AcDbLine
 10
1807.74
 20
511.37
 30
0.0
 11
1806.368596299
 21
511.37
 31
0.0
  0
LINE
  5
4B6
330
1F
100
AcDbEntity
  8
0
  6
Continuous
 62
     1
100
AcDbLine
 10
1748.111403701
 20
511.37
 30
0.0
 11
1746.74
 21
511.37
 31
0.0
  0
LINE
  5
4B7
330
1F
100
AcDbEntity
  8
0
  6
Continuous
 62
     1
100
AcDbLine
 10
1748.111403701
 20
506.17
 30
0.0
 11
1746.74
 21
506.17
 31
0.0
  0
LWPOLYLINE
  5
4B9
330
1F
100
AcDbEntity
  8
0
  6
Continuous
 62
     1
100
AcDbPolyline
 90
     4
 70
   129
 43
0.0
 10
1594.74
 20
501.27
 10
1596.24
 20
501.27
 10
1596.24
 20
515.77
 10
1594.74
 20
515.77
  0
LWPOLYLINE
  5
4BB
330
1F
100
AcDbEntity
  8
0
  6
Continuous
 62
     1
100
AcDbPolyline
 90
     4
 70
   129
 43
0.0
 10
1596.24
 20
501.27
 10
1626.54
 20
501.27
 10
1626.54
 20
515.77
 10
1596.24
 20
515.77
  0
LWPOLYLINE
  5
4BD
330
1F
100
AcDbEntity
  8
0
  6
Continuous
 62
     1
100
AcDbPolyline
 90
     4
 70
   129
 43
0.0
 10
1616.44
 20
501.27
 10
1621.49
 20
501.27
 10
1621.49
 20
515.77
 10
1616.44
 20
515.77
  0
LWPOLYLINE
  5
4BF
330
1F
100
AcDbEntity
  8
0
  6
Continuous
 62
     1
100
AcDbPolyline
 90
     4
 70
   129
 43
0.0
 10
1606.34
 20
501.27
 10
1611.39
 20
501.27
 10
1611.39
 20
515.77
 10
1606.34
 20
515.77
  0
LWPOLYLINE
  5
4C1
330
1F
100
AcDbEntity
  8
0
  6
Continuous
 62
     1
100
AcDbPolyline
 90
     4
 70
   129
 43
0.0
 10
1596.24
 20
501.27
 10
1601.29
 20
501.27
 10
1601.29
 20
515.77
 10
1596.24
 20
515.77
  0
LWPOLYLINE
  5
4C3
330
1F
100
AcDbEntity
  8
0
  6
Continuous
 62
     1
100
AcDbPolyline
 90
     4
 70
   129
 43
0.0
 10
1594.74
 20
502.07
 10
1626.54
 20
502.07
 10
1626.54
 20
514.77
 10
1594.74
 20
514.77
  0
CIRCLE
  5
4C4
330
1F
100
AcDbEntity
  8
0
  6
Continuous
 62
     1
100
AcDbCircle
 10
1624.015
 20
511.77
 30
0.0
 40
2.0
  0
LWPOLYLINE
  5
4C6
330
1F
100
AcDbEntity
  8
0
  6
Continuous
 62
     1
100
AcDbPolyline
 90
     4
 70
   129
 43
0.0
 10
1622.24
 20
503.87
 10
1625.74
 20
503.87
 10
1625.74
 20
506.87
 10
1622.24
 20
506.87
  0
CIRCLE
  5
4C7
330
1F
100
AcDbEntity
  8
0
  6
Continuous
 62
     1
100
AcDbCircle
 10
1618.965
 20
511.77
 30
0.0
 40
2.0
  0
LINE
  5
4C8
330
1F
100
AcDbEntity
  8
0
  6
Continuous
 62
     1
100
AcDbLine
 10
1617.19
 20
503.87
 30
0.0
 11
1620.69
 21
503.87
 31
0.0
  0
LWPOLYLINE
  5
4CA
330
1F
100
AcDbEntity
  8
0
  6
Continuous
 62
     1
100
AcDbPolyline
 90
     4
 70
   128
 43
0.0
 10
1620.69
 20
503.87
 10
1620.69
 20
506.87
 10
1617.19
 20
506.87
 10
1617.19
 20
503.87
  0
CIRCLE
  5
4CB
330
1F
100
AcDbEntity
  8
0
  6
Continuous
 62
     1
100
AcDbCircle
 10
1613.915
 20
511.77
 30
0.0
 40
2.0
  0
LINE
  5
4CC
330
1F
100
AcDbEntity
  8
0
  6
Continuous
 62
     1
100
AcDbLine
 10
1612.14
 20
503.87
 30
0.0
 11
1615.64
 21
503.87
 31
0.0
  0
LWPOLYLINE
  5
4CE
330
1F
100
AcDbEntity
  8
0
  6
Continuous
 62
     1
100
AcDbPolyline
 90
     4
 70
   128
 43
0.0
 10
1615.64
 20
503.87
 10
1615.64
 20
506.87
 10
1612.14
 20
506.87
 10
1612.14
 20
503.87
  0
CIRCLE
  5
4CF
330
1F
100
AcDbEntity
  8
0
  6
Continuous
 62
     1
100
AcDbCircle
 10
1608.865
 20
511.77
 30
0.0
 40
2.0
  0
LINE
  5
4D0
330
1F
100
AcDbEntity
  8
0
  6
Continuous
 62
     1
100
AcDbLine
 10
1607.09
 20
503.87
 30
0.0
 11
1610.59
 21
503.87
 31
0.0
  0
LWPOLYLINE
  5
4D2
330
1F
100
AcDbEntity
  8
0
  6
Continuous
 62
     1
100
AcDbPolyline
 90
     4
 70
   128
 43
0.0
 10
1610.59
 20
503.87
 10
1610.59
 20
506.87
 10
1607.09
 20
506.87
 10
1607.09
 20
503.87
  0
CIRCLE
  5
4D3
330
1F
100
AcDbEntity
  8
0
  6
Continuous
 62
     1
100
AcDbCircle
 10
1603.815
 20
511.77
 30
0.0
 40
2.0
  0
LINE
  5
4D4
330
1F
100
AcDbEntity
  8
0
  6
Continuous
 62
     1
100
AcDbLine
 10
1602.04
 20
503.87
 30
0.0
 11
1605.54
 21
503.87
 31
0.0
  0
LWPOLYLINE
  5
4D6
330
1F
100
AcDbEntity
  8
0
  6
Continuous
 62
     1
100
AcDbPolyline
 90
     4
 70
   128
 43
0.0
 10
1605.54
 20
503.87
 10
1605.54
 20
506.87
 10
1602.04
 20
506.87
 10
1602.04
 20
503.87
  0
CIRCLE
  5
4D7
330
1F
100
AcDbEntity
  8
0
  6
Continuous
 62
     1
100
AcDbCircle
 10
1598.765
 20
511.77
 30
0.0
 40
2.0
  0
LINE
  5
4D8
330
1F
100
AcDbEntity
  8
0
  6
Continuous
 62
     1
100
AcDbLine
 10
1596.99
 20
503.87
 30
0.0
 11
1600.49
 21
503.87
 31
0.0
  0
LWPOLYLINE
  5
4DA
330
1F
100
AcDbEntity
  8
0
  6
Continuous
 62
     1
100
AcDbPolyline
 90
     4
 70
   128
 43
0.0
 10
1600.49
 20
503.87
 10
1600.49
 20
506.87
 10
1596.99
 20
506.87
 10
1596.99
 20
503.87
  0
LINE
  5
4DB
330
1F
100
AcDbEntity
  8
0
  6
Continuous
 62
     1
100
AcDbLine
 10
1699.74
 20
501.27
 30
0.0
 11
1701.24
 21
501.27
 31
0.0
  0
LWPOLYLINE
  5
4DD
330
1F
100
AcDbEntity
  8
0
  6
Continuous
 62
     1
100
AcDbPolyline
 90
     4
 70
   128
 43
0.0
 10
1701.24
 20
501.27
 10
1701.24
 20
515.77
 10
1699.74
 20
515.77
 10
1699.74
 20
501.27
  0
LINE
  5
4DE
330
1F
100
AcDbEntity
  8
0
  6
Continuous
 62
     1
100
AcDbLine
 10
1701.24
 20
515.77
 30
0.0
 11
1701.24
 21
501.27
 31
0.0
  0
LINE
  5
4DF
330
1F
100
AcDbEntity
  8
0
  6
Continuous
 62
     1
100
AcDbLine
 10
1711.34
 20
515.77
 30
0.0
 11
1711.34
 21
501.27
 31
0.0
  0
LWPOLYLINE
  5
4E1
330
1F
100
AcDbEntity
  8
0
  6
Continuous
 62
     1
100
AcDbPolyline
 90
     4
 70
   129
 43
0.0
 10
1701.24
 20
501.27
 10
1706.29
 20
501.27
 10
1706.29
 20
515.77
 10
1701.24
 20
515.77
  0
LINE
  5
4E2
330
1F
100
AcDbEntity
  8
0
  6
Continuous
 62
     1
100
AcDbLine
 10
1699.74
 20
514.77
 30
0.0
 11
1699.74
 21
502.07
 31
0.0
  0
CIRCLE
  5
4E3
330
1F
100
AcDbEntity
  8
0
  6
Continuous
 62
     1
100
AcDbCircle
 10
1708.815
 20
511.77
 30
0.0
 40
2.0
  0
LINE
  5
4E4
330
1F
100
AcDbEntity
  8
0
  6
Continuous
 62
     1
100
AcDbLine
 10
1707.04
 20
503.87
 30
0.0
 11
1710.54
 21
503.87
 31
0.0
  0
LWPOLYLINE
  5
4E6
330
1F
100
AcDbEntity
  8
0
  6
Continuous
 62
     1
100
AcDbPolyline
 90
     4
 70
   128
 43
0.0
 10
1710.54
 20
503.87
 10
1710.54
 20
506.87
 10
1707.04
 20
506.87
 10
1707.04
 20
503.87
  0
CIRCLE
  5
4E7
330
1F
100
AcDbEntity
  8
0
  6
Continuous
 62
     1
100
AcDbCircle
 10
1703.765
 20
511.77
 30
0.0
 40
2.0
  0
LINE
  5
4E8
330
1F
100
AcDbEntity
  8
0
  6
Continuous
 62
     1
100
AcDbLine
 10
1701.99
 20
503.87
 30
0.0
 11
1705.49
 21
503.87
 31
0.0
  0
LWPOLYLINE
  5
4EA
330
1F
100
AcDbEntity
  8
0
  6
Continuous
 62
     1
100
AcDbPolyline
 90
     4
 70
   128
 43
0.0
 10
1705.49
 20
503.87
 10
1705.49
 20
506.87
 10
1701.99
 20
506.87
 10
1701.99
 20
503.87
  0
LWPOLYLINE
  5
4EC
330
1F
100
AcDbEntity
  8
0
  6
Continuous
 62
     1
100
AcDbPolyline
 90
     4
 70
   129
 43
0.0
 10
1699.74
 20
502.07
 10
1701.24
 20
502.07
 10
1701.24
 20
514.77
 10
1699.74
 20
514.77
  0
LWPOLYLINE
  5
4EE
330
1F
100
AcDbEntity
  8
0
  6
Continuous
 62
     1
100
AcDbPolyline
 90
     4
 70
   129
 43
0.0
 10
1701.24
 20
502.07
 10
1706.29
 20
502.07
 10
1706.29
 20
514.77
 10
1701.24
 20
514.77
  0
LWPOLYLINE
  5
4F0
330
1F
100
AcDbEntity
  8
0
  6
Continuous
 62
     1
100
AcDbPolyline
 90
     4
 70
   129
 43
0.0
 10
1706.29
 20
502.07
 10
1711.34
 20
502.07
 10
1711.34
 20
514.77
 10
1706.29
 20
514.77
  0
LWPOLYLINE
  5
4F2
330
1F
100
AcDbEntity
  8
0
  6
Continuous
 62
     1
100
AcDbPolyline
 90
     4
 70
   129
 43
0.0
 10
1699.74
 20
501.27
 10
1711.34
 20
501.27
 10
1711.34
 20
502.07
 10
1699.74
 20
502.07
  0
LWPOLYLINE
  5
4F4
330
1F
100
AcDbEntity
  8
0
  6
Continuous
 62
     1
100
AcDbPolyline
 90
     4
 70
   129
 43
0.0
 10
1701.24
 20
501.27
 10
1706.29
 20
501.27
 10
1706.29
 20
515.77
 10
1701.24
 20
515.77
  0
LWPOLYLINE
  5
4F6
330
1F
100
AcDbEntity
  8
0
  6
Continuous
 62
     1
100
AcDbPolyline
 90
     4
 70
   129
 43
0.0
 10
1706.29
 20
501.27
 10
1711.34
 20
501.27
 10
1711.34
 20
515.77
 10
1706.29
 20
515.77
  0
LWPOLYLINE
  5
4F8
330
1F
100
AcDbEntity
  8
0
  6
Continuous
 62
     1
100
AcDbPolyline
 90
     4
 70
   129
 43
0.0
 10
1699.74
 20
514.77
 10
1711.34
 20
514.77
 10
1711.34
 20
515.77
 10
1699.74
 20
515.77
  0
LWPOLYLINE
  5
4FA
330
1F
100
AcDbEntity
  8
0
  6
Continuous
 62
     1
100
AcDbPolyline
 90
     4
 70
   129
 43
0.0
 10
1699.74
 20
514.77
 10
1701.24
 20
514.77
 10
1701.24
 20
515.77
 10
1699.74
 20
515.77
  0
LWPOLYLINE
  5
4FC
330
1F
100
AcDbEntity
  8
0
  6
Continuous
 62
     1
100
AcDbPolyline
 90
     4
 70
   129
 43
0.0
 10
1699.74
 20
501.27
 10
1701.24
 20
501.27
 10
1701.24
 20
502.07
 10
1699.74
 20
502.07
  0
LINE
  5
4FD
330
1F
100
AcDbEntity
  8
0
  6
Continuous
 62
     1
100
AcDbLine
 10
1503.174314575
 20
435.835685425
 30
0.0
 11
1532.078780669
 21
464.740151519
 31
0.0
  0
LINE
  5
4FE
330
1F
100
AcDbEntity
  8
0
  6
Continuous
 62
     1
100
AcDbLine
 10
1503.174314575
 20
500.715685425
 30
0.0
 11
1532.078780669
 21
471.811219331
 31
0.0
  0
ARC
  5
4FF
330
1F
100
AcDbEntity
  8
0
  6
Continuous
 62
     1
100
AcDbCircle
 10
1528.543246763
 20
468.275685425
 30
0.0
 40
5.0
100
AcDbArc
 50
315.0
 51
45.0
  0
LINE
  5
500
330
1F
100
AcDbEntity
  8
0
  6
Continuous
 62
     1
100
AcDbLine
 10
1504.305685425
 20
434.704314575
 30
0.0
 11
1533.188780669
 21
463.587409819
 31
0.0
  0
LINE
  5
501
330
1F
100
AcDbEntity
  8
0
  6
Continuous
 62
     1
100
AcDbLine
 10
1504.305685425
 20
501.804314575
 30
0.0
 11
1533.188780669
 21
472.921219331
 31
0.0
  0
ARC
  5
502
330
1F
100
AcDbEntity
  8
0
  6
Continuous
 62
     1
100
AcDbCircle
 10
1528.521875913
 20
468.254314575
 30
0.0
 40
6.6
100
AcDbArc
 50
315.0
 51
45.0
  0
LINE
  5
503
330
1F
100
AcDbEntity
  8
0
  6
Continuous
 62
     1
100
AcDbLine
 10
1570.305685425
 20
435.835685425
 30
0.0
 11
1541.401219331
 21
464.740151519
 31
0.0
  0
LINE
  5
504
330
1F
100
AcDbEntity
  8
0
  6
Continuous
 62
     1
100
AcDbLine
 10
1570.305685425
 20
500.715685425
 30
0.0
 11
1541.401219331
 21
471.811219331
 31
0.0
  0
ARC
  5
505
330
1F
100
AcDbEntity
  8
0
  6
Continuous
 62
     1
100
AcDbCircle
 10
1544.936753237
 20
468.275685425
 30
0.0
 40
5.0
100
AcDbArc
 50
135.0
 51
225.0
  0
LINE
  5
506
330
1F
100
AcDbEntity
  8
0
  6
Continuous
 62
     1
100
AcDbLine
 10
1569.174314575
 20
434.704314575
 30
0.0
 11
1540.291219331
 21
463.587409819
 31
0.0
  0
LINE
  5
507
330
1F
100
AcDbEntity
  8
0
  6
Continuous
 62
     1
100
AcDbLine
 10
1569.174314575
 20
501.804314575
 30
0.0
 11
1540.291219331
 21
472.921219331
 31
0.0
  0
ARC
  5
508
330
1F
100
AcDbEntity
  8
0
  6
Continuous
 62
     1
100
AcDbCircle
 10
1544.958124087
 20
468.254314575
 30
0.0
 40
6.6
100
AcDbArc
 50
135.0
 51
225.0
  0
ARC
  5
509
330
1F
100
AcDbEntity
  8
0
  6
Continuous
 62
     1
100
AcDbCircle
 10
1536.74
 20
468.27
 30
0.0
 40
6.5
100
AcDbArc
 50
52.217114651
 51
128.446031902
  0
ARC
  5
50A
330
1F
100
AcDbEntity
  8
0
  6
Continuous
 62
     1
100
AcDbCircle
 10
1536.74
 20
468.27
 30
0.0
 40
8.1
100
AcDbArc
 50
50.515626714
 51
129.73931091
  0
ARC
  5
50B
330
1F
100
AcDbEntity
  8
0
  6
Continuous
 62
     1
100
AcDbCircle
 10
1536.74
 20
468.27
 30
0.0
 40
14.0
100
AcDbArc
 50
48.268595777
 51
131.753614212
  0
ARC
  5
50C
330
1F
100
AcDbEntity
  8
0
  6
Continuous
 62
     1
100
AcDbCircle
 10
1536.74
 20
468.27
 30
0.0
 40
15.6
100
AcDbArc
 50
47.920805087
 51
131.930422495
  0
ARC
  5
50D
330
1F
100
AcDbEntity
  8
0
  6
Continuous
 62
     1
100
AcDbCircle
 10
1536.74
 20
468.27
 30
0.0
 40
21.5
100
AcDbArc
 50
47.206847275
 51
132.864444499
  0
ARC
  5
50E
330
1F
100
AcDbEntity
  8
0
  6
Continuous
 62
     1
100
AcDbCircle
 10
1536.74
 20
468.27
 30
0.0
 40
23.1
100
AcDbArc
 50
47.08661884
 51
132.995429379
  0
ARC
  5
50F
330
1F
100
AcDbEntity
  8
0
  6
Continuous
 62
     1
100
AcDbCircle
 10
1536.74
 20
468.27
 30
0.0
 40
29.0
100
AcDbArc
 50
46.745372425
 51
133.517471396
  0
ARC
  5
510
330
1F
100
AcDbEntity
  8
0
  6
Continuous
 62
     1
100
AcDbCircle
 10
1536.74
 20
468.27
 30
0.0
 40
30.6
100
AcDbArc
 50
46.54846621
 51
133.514787847
  0
ARC
  5
511
330
1F
100
AcDbEntity
  8
0
  6
Continuous
 62
     1
100
AcDbCircle
 10
1536.74
 20
468.27
 30
0.0
 40
36.5
100
AcDbArc
 50
46.221440883
 51
133.744432426
  0
ARC
  5
512
330
1F
100
AcDbEntity
  8
0
  6
Continuous
 62
     1
100
AcDbCircle
 10
1536.74
 20
468.27
 30
0.0
 40
38.1
100
AcDbArc
 50
46.16932648
 51
133.733307347
  0
ARC
  5
513
330
1F
100
AcDbEntity
  8
0
  6
Continuous
 62
     1
100
AcDbCircle
 10
1536.74
 20
468.27
 30
0.0
 40
38.1
100
AcDbArc
 50
316.299301743
 51
43.755591995
  0
ARC
  5
514
330
1F
100
AcDbEntity
  8
0
  6
Continuous
 62
     1
100
AcDbCircle
 10
1536.74
 20
468.27
 30
0.0
 40
36.5
100
AcDbArc
 50
316.345360232
 51
43.679424768
  0
ARC
  5
515
330
1F
100
AcDbEntity
  8
0
  6
Continuous
 62
     1
100
AcDbCircle
 10
1536.74
 20
468.27
 30
0.0
 40
30.6
100
AcDbArc
 50
316.605466709
 51
43.517334966
  0
ARC
  5
516
330
1F
100
AcDbEntity
  8
0
  6
Continuous
 62
     1
100
AcDbCircle
 10
1536.74
 20
468.27
 30
0.0
 40
29.0
100
AcDbArc
 50
316.666860354
 51
43.395744578
  0
ARC
  5
517
330
1F
100
AcDbEntity
  8
0
  6
Continuous
 62
     1
100
AcDbCircle
 10
1536.74
 20
468.27
 30
0.0
 40
23.1
100
AcDbArc
 50
317.180036314
 51
43.072837375
  0
ARC
  5
518
330
1F
100
AcDbEntity
  8
0
  6
Continuous
 62
     1
100
AcDbCircle
 10
1536.74
 20
468.27
 30
0.0
 40
21.5
100
AcDbArc
 50
317.456885939
 51
42.906220935
  0
ARC
  5
519
330
1F
100
AcDbEntity
  8
0
  6
Continuous
 62
     1
100
AcDbCircle
 10
1536.74
 20
468.27
 30
0.0
 40
15.6
100
AcDbArc
 50
317.993127597
 51
42.032528087
  0
ARC
  5
51A
330
1F
100
AcDbEntity
  8
0
  6
Continuous
 62
     1
100
AcDbCircle
 10
1536.74
 20
468.27
 30
0.0
 40
14.0
100
AcDbArc
 50
318.310842793
 51
41.349874116
  0
ARC
  5
51B
330
1F
100
AcDbEntity
  8
0
  6
Continuous
 62
     1
100
AcDbCircle
 10
1536.74
 20
468.27
 30
0.0
 40
8.1
100
AcDbArc
 50
320.807650731
 51
39.110080587
  0
ARC
  5
51C
330
1F
100
AcDbEntity
  8
0
  6
Continuous
 62
     1
100
AcDbCircle
 10
1536.74
 20
468.27
 30
0.0
 40
6.5
100
AcDbArc
 50
322.280867829
 51
37.837184056
  0
ARC
  5
51D
330
1F
100
AcDbEntity
  8
0
  6
Continuous
 62
     1
100
AcDbCircle
 10
1536.74
 20
468.27
 30
0.0
 40
6.5
100
AcDbArc
 50
232.4460881
 51
307.509404011
  0
ARC
  5
51E
330
1F
100
AcDbEntity
  8
0
  6
Continuous
 62
     1
100
AcDbCircle
 10
1536.74
 20
468.27
 30
0.0
 40
6.5
100
AcDbArc
 50
142.387876912
 51
217.866180649
  0
ARC
  5
51F
330
1F
100
AcDbEntity
  8
0
  6
Continuous
 62
     1
100
AcDbCircle
 10
1536.74
 20
468.27
 30
0.0
 40
8.1
100
AcDbArc
 50
231.067849199
 51
309.095546357
  0
ARC
  5
520
330
1F
100
AcDbEntity
  8
0
  6
Continuous
 62
     1
100
AcDbCircle
 10
1536.74
 20
468.27
 30
0.0
 40
8.1
100
AcDbArc
 50
140.783766261
 51
218.98503838
  0
ARC
  5
521
330
1F
100
AcDbEntity
  8
0
  6
Continuous
 62
     1
100
AcDbCircle
 10
1536.74
 20
468.27
 30
0.0
 40
14.0
100
AcDbArc
 50
228.057357507
 51
311.639208921
  0
ARC
  5
522
330
1F
100
AcDbEntity
  8
0
  6
Continuous
 62
     1
100
AcDbCircle
 10
1536.74
 20
468.27
 30
0.0
 40
14.0
100
AcDbArc
 50
138.010344229
 51
221.546444254
  0
ARC
  5
523
330
1F
100
AcDbEntity
  8
0
  6
Continuous
 62
     1
100
AcDbCircle
 10
1536.74
 20
468.27
 30
0.0
 40
15.6
100
AcDbArc
 50
228.151150975
 51
312.093157988
  0
ARC
  5
524
330
1F
100
AcDbEntity
  8
0
  6
Continuous
 62
     1
100
AcDbCircle
 10
1536.74
 20
468.27
 30
0.0
 40
15.6
100
AcDbArc
 50
137.871790509
 51
222.09205666
  0
ARC
  5
525
330
1F
100
AcDbEntity
  8
0
  6
Continuous
 62
     1
100
AcDbCircle
 10
1536.74
 20
468.27
 30
0.0
 40
21.5
100
AcDbArc
 50
227.135880041
 51
312.871017032
  0
ARC
  5
526
330
1F
100
AcDbEntity
  8
0
  6
Continuous
 62
     1
100
AcDbCircle
 10
1536.74
 20
468.27
 30
0.0
 40
21.5
100
AcDbArc
 50
137.108055479
 51
222.69646085
  0
ARC
  5
527
330
1F
100
AcDbEntity
  8
0
  6
Continuous
 62
     1
100
AcDbCircle
 10
1536.74
 20
468.27
 30
0.0
 40
23.1
100
AcDbArc
 50
227.211457574
 51
313.000240667
  0
ARC
  5
528
330
1F
100
AcDbEntity
  8
0
  6
Continuous
 62
     1
100
AcDbCircle
 10
1536.74
 20
468.27
 30
0.0
 40
23.1
100
AcDbArc
 50
137.01545514
 51
222.908086364
  0
ARC
  5
529
330
1F
100
AcDbEntity
  8
0
  6
Continuous
 62
     1
100
AcDbCircle
 10
1536.74
 20
468.27
 30
0.0
 40
29.0
100
AcDbArc
 50
226.692140021
 51
313.406503218
  0
ARC
  5
52A
330
1F
100
AcDbEntity
  8
0
  6
Continuous
 62
     1
100
AcDbCircle
 10
1536.74
 20
468.27
 30
0.0
 40
29.0
100
AcDbArc
 50
136.561707433
 51
223.378140715
  0
ARC
  5
52B
330
1F
100
AcDbEntity
  8
0
  6
Continuous
 62
     1
100
AcDbCircle
 10
1536.74
 20
468.27
 30
0.0
 40
30.6
100
AcDbArc
 50
226.628688365
 51
313.476942119
  0
ARC
  5
52C
330
1F
100
AcDbEntity
  8
0
  6
Continuous
 62
     1
100
AcDbCircle
 10
1536.74
 20
468.27
 30
0.0
 40
30.6
100
AcDbArc
 50
136.531704252
 51
223.423521464
  0
ARC
  5
52D
330
1F
100
AcDbEntity
  8
0
  6
Continuous
 62
     1
100
AcDbCircle
 10
1536.74
 20
468.27
 30
0.0
 40
36.5
100
AcDbArc
 50
226.266891953
 51
313.779575462
  0
ARC
  5
52E
330
1F
100
AcDbEntity
  8
0
  6
Continuous
 62
     1
100
AcDbCircle
 10
1536.74
 20
468.27
 30
0.0
 40
36.5
100
AcDbArc
 50
136.219478942
 51
223.610101308
  0
ARC
  5
52F
330
1F
100
AcDbEntity
  8
0
  6
Continuous
 62
     1
100
AcDbCircle
 10
1536.74
 20
468.27
 30
0.0
 40
38.1
100
AcDbArc
 50
226.319146166
 51
313.798211835
  0
ARC
  5
530
330
1F
100
AcDbEntity
  8
0
  6
Continuous
 62
     1
100
AcDbCircle
 10
1536.74
 20
468.27
 30
0.0
 40
38.1
100
AcDbArc
 50
136.136227054
 51
223.71156184
  0
CIRCLE
  5
531
330
1F
100
AcDbEntity
  8
0
  6
Continuous
 62
     1
100
AcDbCircle
 10
1572.54
 20
504.07
 30
0.0
 40
4.0
  0
CIRCLE
  5
532
330
1F
100
AcDbEntity
  8
0
  6
Continuous
 62
     1
100
AcDbCircle
 10
1572.54
 20
504.07
 30
0.0
 40
3.0
  0
LINE
  5
533
330
1F
100
AcDbEntity
  8
0
  6
Continuous
 62
     1
100
AcDbLine
 10
1573.84
 20
505.37
 30
0.0
 11
1571.24
 21
502.77
 31
0.0
  0
LINE
  5
534
330
1F
100
AcDbEntity
  8
0
  6
Continuous
 62
     1
100
AcDbLine
 10
1571.24
 20
505.37
 30
0.0
 11
1573.84
 21
502.77
 31
0.0
  0
CIRCLE
  5
535
330
1F
100
AcDbEntity
  8
0
  6
Continuous
 62
     1
100
AcDbCircle
 10
1572.54
 20
432.47
 30
0.0
 40
4.0
  0
CIRCLE
  5
536
330
1F
100
AcDbEntity
  8
0
  6
Continuous
 62
     1
100
AcDbCircle
 10
1572.54
 20
432.47
 30
0.0
 40
3.0
  0
LINE
  5
537
330
1F
100
AcDbEntity
  8
0
  6
Continuous
 62
     1
100
AcDbLine
 10
1573.84
 20
433.77
 30
0.0
 11
1571.24
 21
431.17
 31
0.0
  0
LINE
  5
538
330
1F
100
AcDbEntity
  8
0
  6
Continuous
 62
     1
100
AcDbLine
 10
1571.24
 20
433.77
 30
0.0
 11
1573.84
 21
431.17
 31
0.0
  0
CIRCLE
  5
539
330
1F
100
AcDbEntity
  8
0
  6
Continuous
 62
     1
100
AcDbCircle
 10
1500.94
 20
432.47
 30
0.0
 40
4.0
  0
CIRCLE
  5
53A
330
1F
100
AcDbEntity
  8
0
  6
Continuous
 62
     1
100
AcDbCircle
 10
1500.94
 20
432.47
 30
0.0
 40
3.0
  0
LINE
  5
53B
330
1F
100
AcDbEntity
  8
0
  6
Continuous
 62
     1
100
AcDbLine
 10
1502.24
 20
433.77
 30
0.0
 11
1499.64
 21
431.17
 31
0.0
  0
LINE
  5
53C
330
1F
100
AcDbEntity
  8
0
  6
Continuous
 62
     1
100
AcDbLine
 10
1499.64
 20
433.77
 30
0.0
 11
1502.24
 21
431.17
 31
0.0
  0
CIRCLE
  5
53D
330
1F
100
AcDbEntity
  8
0
  6
Continuous
 62
     1
100
AcDbCircle
 10
1500.94
 20
504.07
 30
0.0
 40
4.0
  0
CIRCLE
  5
53E
330
1F
100
AcDbEntity
  8
0
  6
Continuous
 62
     1
100
AcDbCircle
 10
1500.94
 20
504.07
 30
0.0
 40
3.0
  0
LINE
  5
53F
330
1F
100
AcDbEntity
  8
0
  6
Continuous
 62
     1
100
AcDbLine
 10
1502.24
 20
505.37
 30
0.0
 11
1499.64
 21
502.77
 31
0.0
  0
LINE
  5
540
330
1F
100
AcDbEntity
  8
0
  6
Continuous
 62
     1
100
AcDbLine
 10
1499.64
 20
505.37
 30
0.0
 11
1502.24
 21
502.77
 31
0.0
  0
LINE
  5
541
330
1F
100
AcDbEntity
  8
9
  6
Continuous
 62
     1
100
AcDbLine
 10
1693.565
 20
505.055
 30
0.0
 11
1698.515
 21
505.055
 31
0.0
  0
LWPOLYLINE
  5
543
330
1F
100
AcDbEntity
  8
9
  6
Continuous
 62
     1
100
AcDbPolyline
 90
     4
 70
   128
 43
0.0
 10
1698.515
 20
505.055
 10
1698.515
 20
511.985
 10
1693.565
 20
511.985
 10
1693.565
 20
505.055
  0
LWPOLYLINE
  5
545
330
1F
100
AcDbEntity
  8
9
  6
Continuous
 62
     1
100
AcDbPolyline
 90
     4
 70
   129
 43
0.0
 10
1694.555
 20
507.035
 10
1695.545
 20
507.035
 10
1695.545
 20
510.005
 10
1694.555
 20
510.005
  0
LWPOLYLINE
  5
547
330
1F
100
AcDbEntity
  8
9
  6
Continuous
 62
     1
100
AcDbPolyline
 90
     4
 70
   129
 43
0.0
 10
1696.535
 20
507.035
 10
1697.525
 20
507.035
 10
1697.525
 20
510.005
 10
1696.535
 20
510.005
  0
LWPOLYLINE
  5
549
330
1F
100
AcDbEntity
  8
9
  6
Continuous
 62
     1
100
AcDbPolyline
 90
     4
 70
   129
 43
0.0
 10
1694.555
 20
509.015
 10
1695.545
 20
509.015
 10
1695.545
 20
510.005
 10
1694.555
 20
510.005
  0
LWPOLYLINE
  5
54B
330
1F
100
AcDbEntity
  8
9
  6
Continuous
 62
     1
100
AcDbPolyline
 90
     4
 70
   129
 43
0.0
 10
1696.535
 20
509.015
 10
1697.525
 20
509.015
 10
1697.525
 20
510.005
 10
1696.535
 20
510.005
  0
TEXT
  5
54C
330
1F
100
AcDbEntity
  8
0
  6
Continuous
 62
     1
100
AcDbText
 10
1766.74
 20
526.77
 30
0.0
 40
5.0
  1
＋
 41
1.0
  7
KANJI3
100
AcDbText
  0
TEXT
  5
54E
330
1F
100
AcDbEntity
  8
0
  6
Continuous
 62
     1
100
AcDbText
 10
1782.74
 20
526.77
 30
0.0
 40
5.0
  1
－
 41
1.0
  7
KANJI3
100
AcDbText
  0
LINE
  5
54F
330
1F
100
AcDbEntity
  8
0
  6
Continuous
 62
     1
100
AcDbLine
 10
1771.74
 20
536.27
 30
0.0
 11
1769.24
 21
536.27
 31
0.0
  0
LINE
  5
550
330
1F
100
AcDbEntity
  8
0
  6
Continuous
 62
     1
100
AcDbLine
 10
1769.24
 20
536.27
 30
0.0
 11
1769.24
 21
533.27
 31
0.0
  0
LINE
  5
551
330
1F
100
AcDbEntity
  8
0
  6
Continuous
 62
     1
100
AcDbLine
 10
1785.24
 20
533.27
 30
0.0
 11
1785.24
 21
536.27
 31
0.0
  0
LINE
  5
552
330
1F
100
AcDbEntity
  8
0
  6
Continuous
 62
     1
100
AcDbLine
 10
1785.24
 20
536.27
 30
0.0
 11
1782.74
 21
536.27
 31
0.0
  0
TEXT
  5
553
330
1F
100
AcDbEntity
  8
0
  6
Continuous
 62
     1
100
AcDbText
 10
1774.74
 20
534.77
 30
0.0
 40
4.0
  1
ＩＮ
 41
0.625
  7
KANJI4
100
AcDbText
  0
TEXT
  5
555
330
1F
100
AcDbEntity
  8
0
  6
Continuous
 62
     1
100
AcDbText
 10
1707.415
 20
517.82
 30
0.0
 40
3.0
  1
－
 41
1.0
  7
KANJI2
100
AcDbText
  0
TEXT
  5
556
330
1F
100
AcDbEntity
  8
0
  6
Continuous
 62
     1
100
AcDbText
 10
1702.265
 20
517.77
 30
0.0
 40
3.0
  1
＋
 41
1.0
  7
KANJI2
100
AcDbText
  0
LWPOLYLINE
  5
558
330
1F
100
AcDbEntity
  8
0
  6
Continuous
 62
     1
100
AcDbPolyline
 90
     4
 70
   128
 43
0.0
 10
1708.815
 20
521.77
 10
1708.815
 20
523.27
 10
1703.765
 20
523.27
 10
1703.765
 20
521.77
  0
TEXT
  5
559
330
1F
100
AcDbEntity
  8
0
  6
Continuous
 62
     1
100
AcDbText
 10
1703.765
 20
523.27
 30
0.0
 40
3.0
  1
ＲＣ
 41
1.0
  7
KANJI2
100
AcDbText
  0
LWPOLYLINE
  5
55B
330
1F
100
AcDbEntity
  8
0
  6
Continuous
 62
     2
100
AcDbPolyline
 90
     4
 70
   129
 43
0.0
 10
1692.34
 20
501.27
 10
1711.34
 20
501.27
 10
1711.34
 20
515.77
 10
1692.34
 20
515.77
  0
TEXT
  5
55C
330
1F
100
AcDbEntity
  8
0
  6
Continuous
 62
     1
100
AcDbText
 10
1692.34
 20
517.77
 30
0.0
 40
3.0
  1
ＳＷ１
 41
1.0
  7
KANJI2
100
AcDbText
  0
LWPOLYLINE
  5
55E
330
1F
100
AcDbEntity
  8
0
  6
Continuous
 62
     1
100
AcDbPolyline
 90
     4
 70
   129
 43
0.0
 10
1786.74
 20
438.27
 10
1836.74
 20
438.27
 10
1836.74
 20
468.27
 10
1786.74
 20
468.27
  0
LWPOLYLINE
  5
560
330
1F
100
AcDbEntity
  8
0
  6
Continuous
 62
     1
100
AcDbPolyline
 90
     4
 70
   128
 43
0.0
 10
1603.815
 20
519.77
 10
1603.815
 20
521.27
 10
1598.765
 20
521.27
 10
1598.765
 20
519.77
  0
LWPOLYLINE
  5
562
330
1F
100
AcDbEntity
  8
0
  6
Continuous
 62
     1
100
AcDbPolyline
 90
     4
 70
   128
 43
0.0
 10
1613.915
 20
519.77
 10
1613.915
 20
521.27
 10
1608.865
 20
521.27
 10
1608.865
 20
519.77
  0
LWPOLYLINE
  5
564
330
1F
100
AcDbEntity
  8
0
  6
Continuous
 62
     1
100
AcDbPolyline
 90
     4
 70
   128
 43
0.0
 10
1624.015
 20
519.77
 10
1624.015
 20
521.27
 10
1618.965
 20
521.27
 10
1618.965
 20
519.77
  0
LINE
  5
565
330
1F
100
AcDbEntity
  8
0
  6
Continuous
 62
     1
100
AcDbLine
 10
1597.765
 20
524.77
 30
0.0
 11
1601.29
 21
524.77
 31
0.0
  0
LINE
  5
566
330
1F
100
AcDbEntity
  8
0
  6
Continuous
 62
     1
100
AcDbLine
 10
1601.29
 20
524.77
 30
0.0
 11
1601.29
 21
521.27
 31
0.0
  0
LINE
  5
567
330
1F
100
AcDbEntity
  8
0
  6
Continuous
 62
     1
100
AcDbLine
 10
1607.865
 20
529.77
 30
0.0
 11
1611.39
 21
529.77
 31
0.0
  0
LINE
  5
568
330
1F
100
AcDbEntity
  8
0
  6
Continuous
 62
     1
100
AcDbLine
 10
1611.39
 20
529.77
 30
0.0
 11
1611.39
 21
521.27
 31
0.0
  0
LINE
  5
569
330
1F
100
AcDbEntity
  8
0
  6
Continuous
 62
     1
100
AcDbLine
 10
1617.965
 20
534.77
 30
0.0
 11
1621.49
 21
534.77
 31
0.0
  0
LINE
  5
56A
330
1F
100
AcDbEntity
  8
0
  6
Continuous
 62
     1
100
AcDbLine
 10
1621.49
 20
534.77
 30
0.0
 11
1621.49
 21
521.27
 31
0.0
  0
TEXT
  5
56B
330
1F
100
AcDbEntity
  8
0
  6
Continuous
 62
     1
100
AcDbText
 10
1577.29
 20
523.27
 30
0.0
 40
3.0
  1
ＡＬＡＲＭ
 41
1.0
  7
KANJI5
100
AcDbText
  0
TEXT
  5
56D
330
1F
100
AcDbEntity
  8
0
  6
Continuous
 62
     1
100
AcDbText
 10
1577.29
 20
528.27
 30
0.0
 40
3.0
  1
ＯＶＥＲ　ＬＯＡＤ
 41
1.0
  7
KANJI5
100
AcDbText
  0
TEXT
  5
56E
330
1F
100
AcDbEntity
  8
0
  6
Continuous
 62
     1
100
AcDbText
 10
1577.29
 20
533.27
 30
0.0
 40
3.0
  1
ＩＮＰＵＴ　ＥＲＲＯＲ
 41
1.0
  7
KANJI5
100
AcDbText
  0
LINE
  5
56F
330
1F
100
AcDbEntity
  8
0
  6
Continuous
 62
     1
100
AcDbLine
 10
1514.44
 20
542.27
 30
0.0
 11
1513.44
 21
542.27
 31
0.0
  0
LINE
  5
570
330
1F
100
AcDbEntity
  8
0
  6
Continuous
 62
     1
100
AcDbLine
 10
1513.44
 20
542.27
 30
0.0
 11
1513.44
 21
538.77
 31
0.0
  0
LINE
  5
571
330
1F
100
AcDbEntity
  8
0
  6
Continuous
 62
     1
100
AcDbLine
 10
1523.44
 20
542.27
 30
0.0
 11
1524.44
 21
542.27
 31
0.0
  0
LINE
  5
572
330
1F
100
AcDbEntity
  8
0
  6
Continuous
 62
     1
100
AcDbLine
 10
1524.44
 20
542.27
 30
0.0
 11
1524.44
 21
538.77
 31
0.0
  0
TEXT
  5
573
330
1F
100
AcDbEntity
  8
0
  6
Continuous
 62
     1
100
AcDbText
 10
1499.44
 20
534.77
 30
0.0
 40
3.0
  1
ＦＧ
 41
1.0
  7
KANJI5
100
AcDbText
  0
TEXT
  5
574
330
1F
100
AcDbEntity
  8
0
  6
Continuous
 62
     1
100
AcDbText
 10
1511.94
 20
534.77
 30
0.0
 40
3.0
  1
Ｎ
 41
1.0
  7
KANJI5
100
AcDbText
  0
TEXT
  5
575
330
1F
100
AcDbEntity
  8
0
  6
Continuous
 62
     1
100
AcDbText
 10
1522.94
 20
534.77
 30
0.0
 40
3.0
  1
Ｌ
 41
1.0
  7
KANJI5
100
AcDbText
  0
TEXT
  5
576
330
1F
100
AcDbEntity
  8
0
  6
Continuous
 62
     1
100
AcDbText
 10
1514.44
 20
540.77
 30
0.0
 40
3.0
  1
ＯＵＴ
 41
1.0
  7
KANJI5
100
AcDbText
  0
LINE
  5
577
330
1F
100
AcDbEntity
  8
0
  6
Continuous
 62
     1
100
AcDbLine
 10
266.94
 20
763.29
 30
0.0
 11
187.92
 21
763.29
 31
0.0
  0
LINE
  5
578
330
1F
100
AcDbEntity
  8
0
  6
Continuous
 62
     1
100
AcDbLine
 10
197.92
 20
763.29
 30
0.0
 11
194.684761936
 21
751.215927171
 31
0.0
  0
LINE
  5
579
330
1F
100
AcDbEntity
  8
0
  6
Continuous
 62
     1
100
AcDbLine
 10
197.92
 20
763.29
 30
0.0
 11
201.155238064
 21
751.215927171
 31
0.0
  0
LWPOLYLINE
  5
57B
330
1F
100
AcDbEntity
  8
0
  6
Continuous
 62
     1
100
AcDbPolyline
 90
     4
 70
   128
 43
0.0
 10
197.92
 20
700.54
 10
197.92
 20
763.29
 10
197.92
 20
765.29
 10
197.92
 20
784.04
  0
LINE
  5
57C
330
1F
100
AcDbEntity
  8
0
  6
Continuous
 62
     1
100
AcDbLine
 10
197.92
 20
765.29
 30
0.0
 11
201.155238064
 21
777.364072829
 31
0.0
  0
LINE
  5
57D
330
1F
100
AcDbEntity
  8
0
  6
Continuous
 62
     1
100
AcDbLine
 10
197.92
 20
765.29
 30
0.0
 11
194.684761936
 21
777.364072829
 31
0.0
  0
LINE
  5
57E
330
1F
100
AcDbEntity
  8
0
  6
Continuous
 62
     1
100
AcDbLine
 10
266.94
 20
765.29
 30
0.0
 11
187.92
 21
765.29
 31
0.0
  0
TEXT
  5
57F
330
1F
100
AcDbEntity
  8
0
  6
Continuous
 62
     1
100
AcDbText
 10
192.92
 20
700.54
 30
0.0
 40
15.0
  1
ｔ＝２
 50
90.0
 41
0.933333333
 51
15.0
  7
KANJI6
100
AcDbText
  0
LWPOLYLINE
  5
582
330
1F
100
AcDbEntity
  8
0
  6
Continuous
 62
     2
100
AcDbPolyline
 90
     4
 70
   129
 43
0.0
 10
868.34
 20
409.27
 10
870.34
 20
409.27
 10
870.34
 20
558.27
 10
868.34
 20
558.27
  0
LWPOLYLINE
  5
584
330
1F
100
AcDbEntity
  8
0
  6
Continuous
 62
     2
100
AcDbPolyline
 90
     4
 70
   129
 43
0.0
 10
868.34
 20
430.27
 10
870.34
 20
430.27
 10
870.34
 20
437.27
 10
868.34
 20
437.27
  0
LWPOLYLINE
  5
586
330
1F
100
AcDbEntity
  8
0
  6
Continuous
 62
     2
100
AcDbPolyline
 90
     4
 70
   129
 43
0.0
 10
868.34
 20
530.27
 10
870.34
 20
530.27
 10
870.34
 20
537.27
 10
868.34
 20
537.27
  0
ARC
  5
587
330
1F
100
AcDbEntity
  8
0
  6
Continuous
 62
     1
100
AcDbCircle
 10
848.34
 20
543.77
 30
0.0
 40
2.0
100
AcDbArc
 50
90.0
 51
270.0
  0
LWPOLYLINE
  5
589
330
1F
100
AcDbEntity
  8
0
  6
Continuous
 62
     1
100
AcDbPolyline
 90
     4
 70
   128
 43
0.0
 10
848.34
 20
541.77
 10
868.34
 20
541.77
 10
868.34
 20
545.77
 10
848.34
 20
545.77
  0
ARC
  5
58A
330
1F
100
AcDbEntity
  8
0
  6
Continuous
 62
     1
100
AcDbCircle
 10
847.34
 20
523.77
 30
0.0
 40
6.0
100
AcDbArc
 50
90.0
 51
180.0
  0
ARC
  5
58B
330
1F
100
AcDbEntity
  8
0
  6
Continuous
 62
     1
100
AcDbCircle
 10
847.34
 20
523.77
 30
0.0
 40
14.0
100
AcDbArc
 50
90.0
 51
180.0
  0
LWPOLYLINE
  5
58D
330
1F
100
AcDbEntity
  8
0
  6
Continuous
 62
     1
100
AcDbPolyline
 90
     4
 70
   128
 43
0.0
 10
847.34
 20
529.77
 10
868.34
 20
529.77
 10
868.34
 20
537.77
 10
847.34
 20
537.77
  0
ARC
  5
58E
330
1F
100
AcDbEntity
  8
0
  6
Continuous
 62
     1
100
AcDbCircle
 10
847.34
 20
443.77
 30
0.0
 40
14.0
100
AcDbArc
 50
180.0
 51
270.0
  0
ARC
  5
58F
330
1F
100
AcDbEntity
  8
0
  6
Continuous
 62
     1
100
AcDbCircle
 10
847.34
 20
443.77
 30
0.0
 40
6.0
100
AcDbArc
 50
180.0
 51
270.0
  0
LINE
  5
590
330
1F
100
AcDbEntity
  8
0
  6
Continuous
 62
     1
100
AcDbLine
 10
841.34
 20
443.77
 30
0.0
 11
841.34
 21
523.77
 31
0.0
  0
LINE
  5
591
330
1F
100
AcDbEntity
  8
0
  6
Continuous
 62
     1
100
AcDbLine
 10
833.34
 20
523.77
 30
0.0
 11
833.34
 21
443.77
 31
0.0
  0
LWPOLYLINE
  5
593
330
1F
100
AcDbEntity
  8
0
  6
Continuous
 62
     1
100
AcDbPolyline
 90
     4
 70
   128
 43
0.0
 10
847.34
 20
429.77
 10
868.34
 20
429.77
 10
868.34
 20
437.77
 10
847.34
 20
437.77
  0
LWPOLYLINE
  5
595
330
1F
100
AcDbEntity
  8
0
  6
Continuous
 62
     1
100
AcDbPolyline
 90
     4
 70
   129
 43
0.0
 10
867.34
 20
514.77
 10
868.34
 20
514.77
 10
868.34
 20
528.77
 10
867.34
 20
528.77
  0
CIRCLE
  5
596
330
1F
100
AcDbEntity
  8
0
  6
Continuous
 62
     1
100
AcDbCircle
 10
856.733398282
 20
509.74918472
 30
0.0
 40
3.0
  0
LINE
  5
597
330
1F
100
AcDbEntity
  8
0
  6
Continuous
 62
     1
100
AcDbLine
 10
867.34
 20
521.77
 30
0.0
 11
864.865126266
 21
519.295126266
 31
0.0
  0
LINE
  5
598
330
1F
100
AcDbEntity
  8
0
  6
Continuous
 62
     1
100
AcDbLine
 10
867.34
 20
518.941572875
 30
0.0
 11
866.279339828
 21
517.880912703
 31
0.0
  0
LINE
  5
599
330
1F
100
AcDbEntity
  8
0
  6
Continuous
 62
     1
100
AcDbLine
 10
864.865126266
 20
519.295126266
 30
0.0
 11
854.981393518
 21
512.184442264
 31
0.0
  0
LINE
  5
59A
330
1F
100
AcDbEntity
  8
0
  6
Continuous
 62
     1
100
AcDbLine
 10
866.279339828
 20
517.880912703
 30
0.0
 11
859.168655826
 21
507.997179956
 31
0.0
  0
LINE
  5
59B
330
1F
100
AcDbEntity
  8
0
  6
Continuous
 62
     1
100
AcDbLine
 10
266.94
 20
765.29
 30
0.0
 11
187.92
 21
765.29
 31
0.0
  0
LINE
  5
59C
330
1F
100
AcDbEntity
  8
0
  6
Continuous
 62
     1
100
AcDbLine
 10
197.92
 20
765.29
 30
0.0
 11
201.155238064
 21
777.364072829
 31
0.0
  0
LINE
  5
59D
330
1F
100
AcDbEntity
  8
0
  6
Continuous
 62
     1
100
AcDbLine
 10
197.92
 20
765.29
 30
0.0
 11
194.684761936
 21
777.364072829
 31
0.0
  0
LWPOLYLINE
  5
59F
330
1F
100
AcDbEntity
  8
0
  6
Continuous
 62
     1
100
AcDbPolyline
 90
     3
 70
   128
 43
0.0
 10
197.92
 20
765.29
 10
197.92
 20
1162.29
 10
194.684761936
 20
1150.215927171
  0
LINE
  5
5A0
330
1F
100
AcDbEntity
  8
0
  6
Continuous
 62
     1
100
AcDbLine
 10
197.92
 20
1162.29
 30
0.0
 11
201.155238064
 21
1150.215927171
 31
0.0
  0
LINE
  5
5A1
330
1F
100
AcDbEntity
  8
0
  6
Continuous
 62
     1
100
AcDbLine
 10
291.94
 20
1162.29
 30
0.0
 11
187.92
 21
1162.29
 31
0.0
  0
TEXT
  5
5A2
330
1F
100
AcDbEntity
  8
0
  6
Continuous
 62
     1
100
AcDbText
 10
192.92
 20
941.79
 30
0.0
 40
15.0
  1
３９７
 50
90.0
 41
0.933333333
 51
15.0
  7
KANJI6
100
AcDbText
  0
LINE
  5
5A3
330
1F
100
AcDbEntity
  8
0
  6
Continuous
 62
     1
100
AcDbLine
 10
291.94
 20
1162.29
 30
0.0
 11
187.92
 21
1162.29
 31
0.0
  0
LINE
  5
5A4
330
1F
100
AcDbEntity
  8
0
  6
Continuous
 62
     1
100
AcDbLine
 10
197.92
 20
1162.29
 30
0.0
 11
194.684761936
 21
1150.215927171
 31
0.0
  0
LINE
  5
5A5
330
1F
100
AcDbEntity
  8
0
  6
Continuous
 62
     1
100
AcDbLine
 10
197.92
 20
1162.29
 30
0.0
 11
201.155238064
 21
1150.215927171
 31
0.0
  0
LWPOLYLINE
  5
5A7
330
1F
100
AcDbEntity
  8
0
  6
Continuous
 62
     1
100
AcDbPolyline
 90
     4
 70
   128
 43
0.0
 10
197.92
 20
1143.54
 10
197.92
 20
1162.29
 10
197.92
 20
1188.29
 10
197.92
 20
1281.04
  0
LINE
  5
5A8
330
1F
100
AcDbEntity
  8
0
  6
Continuous
 62
     1
100
AcDbLine
 10
197.92
 20
1188.29
 30
0.0
 11
201.155238064
 21
1200.364072829
 31
0.0
  0
LINE
  5
5A9
330
1F
100
AcDbEntity
  8
0
  6
Continuous
 62
     1
100
AcDbLine
 10
197.92
 20
1188.29
 30
0.0
 11
194.684761936
 21
1200.364072829
 31
0.0
  0
LINE
  5
5AA
330
1F
100
AcDbEntity
  8
0
  6
Continuous
 62
     1
100
AcDbLine
 10
340.94
 20
1188.29
 30
0.0
 11
187.92
 21
1188.29
 31
0.0
  0
TEXT
  5
5AB
330
1F
100
AcDbEntity
  8
0
  6
Continuous
 62
     1
100
AcDbText
 10
192.92
 20
1207.04
 30
0.0
 40
15.0
  1
２８ｍａｘ
 50
90.0
 41
0.933333333
 51
15.0
  7
KANJI6
100
AcDbText
  0
LINE
  5
5AC
330
1F
100
AcDbEntity
  8
0
  6
Continuous
 62
     1
100
AcDbLine
 10
296.94
 20
1167.29
 30
0.0
 11
296.94
 21
1253.86
 31
0.0
  0
LINE
  5
5AD
330
1F
100
AcDbEntity
  8
0
  6
Continuous
 62
     1
100
AcDbLine
 10
296.94
 20
1243.86
 30
0.0
 11
309.014072829
 21
1240.624761936
 31
0.0
  0
LINE
  5
5AE
330
1F
100
AcDbEntity
  8
0
  6
Continuous
 62
     1
100
AcDbLine
 10
296.94
 20
1243.86
 30
0.0
 11
309.014072829
 21
1247.095238064
 31
0.0
  0
LWPOLYLINE
  5
5B0
330
1F
100
AcDbEntity
  8
0
  6
Continuous
 62
     1
100
AcDbPolyline
 90
     3
 70
   128
 43
0.0
 10
296.94
 20
1243.86
 10
726.94
 20
1243.86
 10
714.865927171
 20
1247.095238064
  0
LINE
  5
5B1
330
1F
100
AcDbEntity
  8
0
  6
Continuous
 62
     1
100
AcDbLine
 10
726.94
 20
1243.86
 30
0.0
 11
714.865927171
 21
1240.624761936
 31
0.0
  0
LINE
  5
5B2
330
1F
100
AcDbEntity
  8
0
  6
Continuous
 62
     1
100
AcDbLine
 10
726.94
 20
1167.29
 30
0.0
 11
726.94
 21
1253.86
 31
0.0
  0
TEXT
  5
5B3
330
1F
100
AcDbEntity
  8
0
  6
Continuous
 62
     1
100
AcDbText
 10
489.94
 20
1248.86
 30
0.0
 40
15.0
  1
４３０
 41
0.933333333
 51
15.0
  7
KANJI6
100
AcDbText
  0
LINE
  5
5B4
330
1F
100
AcDbEntity
  8
0
  6
Continuous
 62
     1
100
AcDbLine
 10
271.94
 20
561.27
 30
0.0
 11
271.94
 21
649.73
 31
0.0
  0
LINE
  5
5B5
330
1F
100
AcDbEntity
  8
0
  6
Continuous
 62
     1
100
AcDbLine
 10
271.94
 20
639.73
 30
0.0
 11
284.014072829
 21
636.494761936
 31
0.0
  0
LINE
  5
5B6
330
1F
100
AcDbEntity
  8
0
  6
Continuous
 62
     1
100
AcDbLine
 10
271.94
 20
639.73
 30
0.0
 11
284.014072829
 21
642.965238064
 31
0.0
  0
LWPOLYLINE
  5
5B8
330
1F
100
AcDbEntity
  8
0
  6
Continuous
 62
     1
100
AcDbPolyline
 90
     3
 70
   128
 43
0.0
 10
271.94
 20
639.73
 10
751.94
 20
639.73
 10
739.865927171
 20
642.965238064
  0
LINE
  5
5B9
330
1F
100
AcDbEntity
  8
0
  6
Continuous
 62
     1
100
AcDbLine
 10
751.94
 20
639.73
 30
0.0
 11
739.865927171
 21
636.494761936
 31
0.0
  0
LINE
  5
5BA
330
1F
100
AcDbEntity
  8
0
  6
Continuous
 62
     1
100
AcDbLine
 10
751.94
 20
561.27
 30
0.0
 11
751.94
 21
649.73
 31
0.0
  0
TEXT
  5
5BB
330
1F
100
AcDbEntity
  8
0
  6
Continuous
 62
     1
100
AcDbText
 10
489.94
 20
644.73
 30
0.0
 40
15.0
  1
４８０
 41
0.933333333
 51
15.0
  7
KANJI6
100
AcDbText
  0
LINE
  5
5BC
330
1F
100
AcDbEntity
  8
0
  6
Continuous
 62
     1
100
AcDbLine
 10
281.94
 20
438.77
 30
0.0
 11
281.94
 21
602.47
 31
0.0
  0
LINE
  5
5BD
330
1F
100
AcDbEntity
  8
0
  6
Continuous
 62
     1
100
AcDbLine
 10
281.94
 20
592.47
 30
0.0
 11
294.014072829
 21
589.234761936
 31
0.0
  0
LINE
  5
5BE
330
1F
100
AcDbEntity
  8
0
  6
Continuous
 62
     1
100
AcDbLine
 10
281.94
 20
592.47
 30
0.0
 11
294.014072829
 21
595.705238064
 31
0.0
  0
LWPOLYLINE
  5
5C0
330
1F
100
AcDbEntity
  8
0
  6
Continuous
 62
     1
100
AcDbPolyline
 90
     3
 70
   128
 43
0.0
 10
281.94
 20
592.47
 10
741.94
 20
592.47
 10
729.865927171
 20
595.705238064
  0
LINE
  5
5C1
330
1F
100
AcDbEntity
  8
0
  6
Continuous
 62
     1
100
AcDbLine
 10
741.94
 20
592.47
 30
0.0
 11
729.865927171
 21
589.234761936
 31
0.0
  0
LINE
  5
5C2
330
1F
100
AcDbEntity
  8
0
  6
Continuous
 62
     1
100
AcDbLine
 10
741.94
 20
438.77
 30
0.0
 11
741.94
 21
602.47
 31
0.0
  0
TEXT
  5
5C3
330
1F
100
AcDbEntity
  8
0
  6
Continuous
 62
     1
100
AcDbText
 10
489.94
 20
597.47
 30
0.0
 40
15.0
  1
４６０
 41
0.933333333
 51
15.0
  7
KANJI6
100
AcDbText
  0
LINE
  5
5C4
330
1F
100
AcDbEntity
  8
0
  6
Continuous
 62
     1
100
AcDbLine
 10
833.34
 20
528.77
 30
0.0
 11
833.34
 21
602.47
 31
0.0
  0
LINE
  5
5C5
330
1F
100
AcDbEntity
  8
0
  6
Continuous
 62
     1
100
AcDbLine
 10
833.34
 20
592.47
 30
0.0
 11
821.265927171
 21
595.705238064
 31
0.0
  0
LINE
  5
5C6
330
1F
100
AcDbEntity
  8
0
  6
Continuous
 62
     1
100
AcDbLine
 10
833.34
 20
592.47
 30
0.0
 11
821.265927171
 21
589.234761936
 31
0.0
  0
LWPOLYLINE
  5
5C8
330
1F
100
AcDbEntity
  8
0
  6
Continuous
 62
     1
100
AcDbPolyline
 90
     4
 70
   128
 43
0.0
 10
814.59
 20
592.47
 10
833.34
 20
592.47
 10
868.34
 20
592.47
 10
961.09
 20
592.47
  0
LINE
  5
5C9
330
1F
100
AcDbEntity
  8
0
  6
Continuous
 62
     1
100
AcDbLine
 10
868.34
 20
592.47
 30
0.0
 11
880.414072829
 21
589.234761936
 31
0.0
  0
LINE
  5
5CA
330
1F
100
AcDbEntity
  8
0
  6
Continuous
 62
     1
100
AcDbLine
 10
868.34
 20
592.47
 30
0.0
 11
880.414072829
 21
595.705238064
 31
0.0
  0
LINE
  5
5CB
330
1F
100
AcDbEntity
  8
0
  6
Continuous
 62
     1
100
AcDbLine
 10
868.34
 20
563.27
 30
0.0
 11
868.34
 21
602.47
 31
0.0
  0
TEXT
  5
5CC
330
1F
100
AcDbEntity
  8
0
  6
Continuous
 62
     1
100
AcDbText
 10
887.09
 20
597.47
 30
0.0
 40
15.0
  1
３６ｍａｘ
 41
0.933333333
 51
15.0
  7
KANJI6
100
AcDbText
  0
LINE
  5
5CD
330
1F
100
AcDbEntity
  8
0
  6
Continuous
 62
     1
100
AcDbLine
 10
1271.34
 20
554.27
 30
0.0
 11
1350.29
 21
554.27
 31
0.0
  0
LINE
  5
5CE
330
1F
100
AcDbEntity
  8
0
  6
Continuous
 62
     1
100
AcDbLine
 10
1340.29
 20
554.27
 30
0.0
 11
1337.054761936
 21
542.195927171
 31
0.0
  0
LINE
  5
5CF
330
1F
100
AcDbEntity
  8
0
  6
Continuous
 62
     1
100
AcDbLine
 10
1340.29
 20
554.27
 30
0.0
 11
1343.525238064
 21
542.195927171
 31
0.0
  0
LWPOLYLINE
  5
5D1
330
1F
100
AcDbEntity
  8
0
  6
Continuous
 62
     1
100
AcDbPolyline
 90
     3
 70
   128
 43
0.0
 10
1340.29
 20
554.27
 10
1340.29
 20
413.27
 10
1343.525238064
 20
425.344072829
  0
LINE
  5
5D2
330
1F
100
AcDbEntity
  8
0
  6
Continuous
 62
     1
100
AcDbLine
 10
1340.29
 20
413.27
 30
0.0
 11
1337.054761936
 21
425.344072829
 31
0.0
  0
LINE
  5
5D3
330
1F
100
AcDbEntity
  8
0
  6
Continuous
 62
     1
100
AcDbLine
 10
1272.34
 20
413.27
 30
0.0
 11
1350.29
 21
413.27
 31
0.0
  0
TEXT
  5
5D4
330
1F
100
AcDbEntity
  8
0
  6
Continuous
 62
     1
100
AcDbText
 10
1335.29
 20
461.77
 30
0.0
 40
15.0
  1
１４１
 50
90.0
 41
0.933333333
 51
15.0
  7
KANJI6
100
AcDbText
  0
LINE
  5
5D5
330
1F
100
AcDbEntity
  8
0
  6
Continuous
 62
     1
100
AcDbLine
 10
1272.34
 20
413.27
 30
0.0
 11
1350.29
 21
413.27
 31
0.0
  0
LINE
  5
5D6
330
1F
100
AcDbEntity
  8
0
  6
Continuous
 62
     1
100
AcDbLine
 10
1340.29
 20
413.27
 30
0.0
 11
1343.525238064
 21
425.344072829
 31
0.0
  0
LINE
  5
5D7
330
1F
100
AcDbEntity
  8
0
  6
Continuous
 62
     1
100
AcDbLine
 10
1340.29
 20
413.27
 30
0.0
 11
1337.054761936
 21
425.344072829
 31
0.0
  0
LWPOLYLINE
  5
5D9
330
1F
100
AcDbEntity
  8
0
  6
Continuous
 62
     1
100
AcDbPolyline
 90
     4
 70
   128
 43
0.0
 10
1340.29
 20
432.02
 10
1340.29
 20
413.27
 10
1340.29
 20
405.27
 10
1340.29
 20
372.52
  0
LINE
  5
5DA
330
1F
100
AcDbEntity
  8
0
  6
Continuous
 62
     1
100
AcDbLine
 10
1340.29
 20
405.27
 30
0.0
 11
1337.054761936
 21
393.195927171
 31
0.0
  0
LINE
  5
5DB
330
1F
100
AcDbEntity
  8
0
  6
Continuous
 62
     1
100
AcDbLine
 10
1340.29
 20
405.27
 30
0.0
 11
1343.525238064
 21
393.195927171
 31
0.0
  0
LINE
  5
5DC
330
1F
100
AcDbEntity
  8
0
  6
Continuous
 62
     1
100
AcDbLine
 10
1243.26
 20
405.27
 30
0.0
 11
1350.29
 21
405.27
 31
0.0
  0
TEXT
  5
5DD
330
1F
100
AcDbEntity
  8
0
  6
Continuous
 62
     1
100
AcDbText
 10
1335.29
 20
372.52
 30
0.0
 40
15.0
  1
８
 50
90.0
 41
0.933333333
 51
15.0
  7
KANJI6
100
AcDbText
  0
LINE
  5
5DE
330
1F
100
AcDbEntity
  8
0
  6
Continuous
 62
     1
100
AcDbLine
 10
276.94
 20
533.77
 30
0.0
 11
187.92
 21
533.77
 31
0.0
  0
LINE
  5
5DF
330
1F
100
AcDbEntity
  8
0
  6
Continuous
 62
     1
100
AcDbLine
 10
197.92
 20
533.77
 30
0.0
 11
194.684761936
 21
521.695927171
 31
0.0
  0
LINE
  5
5E0
330
1F
100
AcDbEntity
  8
0
  6
Continuous
 62
     1
100
AcDbLine
 10
197.92
 20
533.77
 30
0.0
 11
201.155238064
 21
521.695927171
 31
0.0
  0
LWPOLYLINE
  5
5E2
330
1F
100
AcDbEntity
  8
0
  6
Continuous
 62
     1
100
AcDbPolyline
 90
     3
 70
   128
 43
0.0
 10
197.92
 20
533.77
 10
197.92
 20
433.77
 10
201.155238064
 20
445.844072829
  0
LINE
  5
5E3
330
1F
100
AcDbEntity
  8
0
  6
Continuous
 62
     1
100
AcDbLine
 10
197.92
 20
433.77
 30
0.0
 11
194.684761936
 21
445.844072829
 31
0.0
  0
LINE
  5
5E4
330
1F
100
AcDbEntity
  8
0
  6
Continuous
 62
     1
100
AcDbLine
 10
276.94
 20
433.77
 30
0.0
 11
187.92
 21
433.77
 31
0.0
  0
TEXT
  5
5E5
330
1F
100
AcDbEntity
  8
0
  6
Continuous
 62
     1
100
AcDbText
 10
192.92
 20
461.77
 30
0.0
 40
15.0
  1
１００
 50
90.0
 41
0.933333333
 51
15.0
  7
KANJI6
100
AcDbText
  0
LINE
  5
5E6
330
1F
100
AcDbEntity
  8
0
  6
Continuous
 62
     1
100
AcDbLine
 10
268.94
 20
558.27
 30
0.0
 11
187.92
 21
558.27
 31
0.0
  0
LINE
  5
5E7
330
1F
100
AcDbEntity
  8
0
  6
Continuous
 62
     1
100
AcDbLine
 10
197.92
 20
558.27
 30
0.0
 11
201.155238064
 21
570.344072829
 31
0.0
  0
LINE
  5
5E8
330
1F
100
AcDbEntity
  8
0
  6
Continuous
 62
     1
100
AcDbLine
 10
197.92
 20
558.27
 30
0.0
 11
194.684761936
 21
570.344072829
 31
0.0
  0
LWPOLYLINE
  5
5EA
330
1F
100
AcDbEntity
  8
0
  6
Continuous
 62
     1
100
AcDbPolyline
 90
     4
 70
   128
 43
0.0
 10
197.92
 20
636.02
 10
197.92
 20
558.27
 10
197.92
 20
533.77
 10
197.92
 20
515.02
  0
LINE
  5
5EB
330
1F
100
AcDbEntity
  8
0
  6
Continuous
 62
     1
100
AcDbLine
 10
197.92
 20
533.77
 30
0.0
 11
194.684761936
 21
521.695927171
 31
0.0
  0
LINE
  5
5EC
330
1F
100
AcDbEntity
  8
0
  6
Continuous
 62
     1
100
AcDbLine
 10
197.92
 20
533.77
 30
0.0
 11
201.155238064
 21
521.695927171
 31
0.0
  0
LINE
  5
5ED
330
1F
100
AcDbEntity
  8
0
  6
Continuous
 62
     1
100
AcDbLine
 10
276.94
 20
533.77
 30
0.0
 11
187.92
 21
533.77
 31
0.0
  0
TEXT
  5
5EE
330
1F
100
AcDbEntity
  8
0
  6
Continuous
 62
     1
100
AcDbText
 10
192.92
 20
577.02
 30
0.0
 40
15.0
  1
２４．５
 50
90.0
 41
0.933333333
 51
15.0
  7
KANJI6
100
AcDbText
  0
LINE
  5
5EF
330
1F
100
AcDbEntity
  8
0
  6
Continuous
 62
     1
100
AcDbLine
 10
268.94
 20
409.27
 30
0.0
 11
187.92
 21
409.27
 31
0.0
  0
LINE
  5
5F0
330
1F
100
AcDbEntity
  8
0
  6
Continuous
 62
     1
100
AcDbLine
 10
197.92
 20
433.77
 30
0.0
 11
197.92
 21
452.52
 31
0.0
  0
LINE
  5
5F1
330
1F
100
AcDbEntity
  8
0
  6
Continuous
 62
     1
100
AcDbLine
 10
197.92
 20
433.77
 30
0.0
 11
201.155238064
 21
445.844072829
 31
0.0
  0
LINE
  5
5F2
330
1F
100
AcDbEntity
  8
0
  6
Continuous
 62
     1
100
AcDbLine
 10
197.92
 20
433.77
 30
0.0
 11
194.684761936
 21
445.844072829
 31
0.0
  0
LINE
  5
5F3
330
1F
100
AcDbEntity
  8
0
  6
Continuous
 62
     1
100
AcDbLine
 10
276.94
 20
433.77
 30
0.0
 11
187.92
 21
433.77
 31
0.0
  0
LINE
  5
5F4
330
1F
100
AcDbEntity
  8
0
  6
Continuous
 62
     1
100
AcDbLine
 10
268.94
 20
409.27
 30
0.0
 11
133.39
 21
409.27
 31
0.0
  0
LINE
  5
5F5
330
1F
100
AcDbEntity
  8
0
  6
Continuous
 62
     1
100
AcDbLine
 10
143.39
 20
409.27
 30
0.0
 11
146.625238064
 21
421.344072829
 31
0.0
  0
LINE
  5
5F6
330
1F
100
AcDbEntity
  8
0
  6
Continuous
 62
     1
100
AcDbLine
 10
143.39
 20
409.27
 30
0.0
 11
140.154761936
 21
421.344072829
 31
0.0
  0
LWPOLYLINE
  5
5F8
330
1F
100
AcDbEntity
  8
0
  6
Continuous
 62
     1
100
AcDbPolyline
 90
     3
 70
   128
 43
0.0
 10
143.39
 20
409.27
 10
143.39
 20
558.27
 10
140.154761936
 20
546.195927171
  0
LINE
  5
5F9
330
1F
100
AcDbEntity
  8
0
  6
Continuous
 62
     1
100
AcDbLine
 10
143.39
 20
558.27
 30
0.0
 11
146.625238064
 21
546.195927171
 31
0.0
  0
LINE
  5
5FA
330
1F
100
AcDbEntity
  8
0
  6
Continuous
 62
     1
100
AcDbLine
 10
268.94
 20
558.27
 30
0.0
 11
133.39
 21
558.27
 31
0.0
  0
TEXT
  5
5FB
330
1F
100
AcDbEntity
  8
0
  6
Continuous
 62
     1
100
AcDbText
 10
138.39
 20
461.77
 30
0.0
 40
15.0
  1
１４９
 50
90.0
 41
0.933333333
 51
15.0
  7
KANJI6
100
AcDbText
  0
LINE
  5
5FC
330
1F
100
AcDbEntity
  8
0
  6
Continuous
 62
     1
100
AcDbLine
 10
1530.645
 20
428.035
 30
0.0
 11
1524.112241338
 21
417.3779336
 31
0.0
  0
LINE
  5
5FD
330
1F
100
AcDbEntity
  8
0
  6
Continuous
 62
     1
100
AcDbLine
 10
1530.645
 20
428.035
 30
0.0
 11
1530.315998242
 21
415.539330436
 31
0.0
  0
LWPOLYLINE
  5
5FF
330
1F
100
AcDbEntity
  8
0
  6
Continuous
 62
     1
100
AcDbPolyline
 90
     3
 70
   128
 43
0.0
 10
1530.645
 20
428.035
 10
1512.605
 20
367.165
 10
1425.605
 20
367.165
  0
TEXT
  5
600
330
1F
100
AcDbEntity
  8
0
  6
Continuous
 62
     1
100
AcDbText
 10
1425.605
 20
372.165
 30
0.0
 40
15.0
  1
冷却用ファン
 41
0.9
  7
KANJI7
100
AcDbText
  0
TEXT
  5
602
330
1F
100
AcDbEntity
  8
0
  6
Continuous
 62
     1
100
AcDbText
 10
201.27
 20
271.41
 30
0.0
 40
15.0
  1
公差：±１
 41
0.933333333
  7
KANJI8
100
AcDbText
  0
TEXT
  5
604
330
1F
100
AcDbEntity
  8
0
  6
Continuous
 62
     1
100
AcDbText
 10
201.27
 20
254.41
 30
0.0
 40
15.0
  1
単位：ｍｍ
 41
0.933333333
  7
KANJI8
100
AcDbText
  0
LINE
  5
606
330
1F
100
AcDbEntity
  8
0
  6
LTYPE2
 62
     1
100
AcDbLine
 10
511.94
 20
718.68
 30
0.0
 11
511.94
 21
1211.62
 31
0.0
  0
LINE
  5
607
330
1F
100
AcDbEntity
  8
0
  6
LTYPE2
 62
     1
100
AcDbLine
 10
511.94
 20
577.63
 30
0.0
 11
511.94
 21
384.23
 31
0.0
  0
LINE
  5
608
330
1F
100
AcDbEntity
  8
0
  6
LTYPE2
 62
     1
100
AcDbLine
 10
1641.74
 20
577.63
 30
0.0
 11
1641.74
 21
384.23
 31
0.0
  0
TEXT
  5
609
330
1F
100
AcDbEntity
  8
0
  6
Continuous
 62
     1
100
AcDbText
 10
201.27
 20
237.41
 30
0.0
 40
15.0
  1
質量：１３Ｋｇ
 41
0.933333333
  7
KANJI8
100
AcDbText
  0
LINE
  5
60A
330
1F
100
AcDbEntity
  8
0
  6
Continuous
 62
     1
100
AcDbLine
 10
756.94
 20
537.27
 30
0.0
 11
793.79
 21
537.27
 31
0.0
  0
LINE
  5
60B
330
1F
100
AcDbEntity
  8
0
  6
Continuous
 62
     1
100
AcDbLine
 10
783.79
 20
537.27
 30
0.0
 11
787.025238064
 21
549.344072829
 31
0.0
  0
LINE
  5
60C
330
1F
100
AcDbEntity
  8
0
  6
Continuous
 62
     1
100
AcDbLine
 10
783.79
 20
537.27
 30
0.0
 11
780.554761936
 21
549.344072829
 31
0.0
  0
LWPOLYLINE
  5
60E
330
1F
100
AcDbEntity
  8
0
  6
Continuous
 62
     1
100
AcDbPolyline
 90
     4
 70
   128
 43
0.0
 10
783.79
 20
570.02
 10
783.79
 20
537.27
 10
783.79
 20
530.27
 10
783.79
 20
511.52
  0
LINE
  5
60F
330
1F
100
AcDbEntity
  8
0
  6
Continuous
 62
     1
100
AcDbLine
 10
783.79
 20
530.27
 30
0.0
 11
780.554761936
 21
518.195927171
 31
0.0
  0
LINE
  5
610
330
1F
100
AcDbEntity
  8
0
  6
Continuous
 62
     1
100
AcDbLine
 10
783.79
 20
530.27
 30
0.0
 11
787.025238064
 21
518.195927171
 31
0.0
  0
LINE
  5
611
330
1F
100
AcDbEntity
  8
0
  6
Continuous
 62
     1
100
AcDbLine
 10
756.94
 20
530.27
 30
0.0
 11
793.79
 21
530.27
 31
0.0
  0
TEXT
  5
612
330
1F
100
AcDbEntity
  8
0
  6
Continuous
 62
     1
100
AcDbText
 10
778.79
 20
556.02
 30
0.0
 40
15.0
  1
７
 50
90.0
 41
0.933333333
 51
15.0
  7
KANJI6
100
AcDbText
  0
LINE
  5
613
330
1F
100
AcDbEntity
  8
0
  6
Continuous
 62
     1
100
AcDbLine
 10
1315.26
 20
468.27
 30
0.0
 11
1305.26
 21
478.27
 31
0.0
  0
LINE
  5
614
330
1F
100
AcDbEntity
  8
0
  6
Continuous
 62
     1
100
AcDbLine
 10
1305.26
 20
473.27
 30
0.0
 11
1305.26
 21
478.27
 31
0.0
  0
LINE
  5
615
330
1F
100
AcDbEntity
  8
0
  6
Continuous
 62
     1
100
AcDbLine
 10
1305.26
 20
473.27
 30
0.0
 11
1285.26
 21
473.27
 31
0.0
  0
LINE
  5
616
330
1F
100
AcDbEntity
  8
0
  6
Continuous
 62
     1
100
AcDbLine
 10
1285.26
 20
473.27
 30
0.0
 11
1285.26
 21
463.27
 31
0.0
  0
LINE
  5
617
330
1F
100
AcDbEntity
  8
0
  6
Continuous
 62
     1
100
AcDbLine
 10
1285.26
 20
463.27
 30
0.0
 11
1305.26
 21
463.27
 31
0.0
  0
LINE
  5
618
330
1F
100
AcDbEntity
  8
0
  6
Continuous
 62
     1
100
AcDbLine
 10
1305.26
 20
463.27
 30
0.0
 11
1305.26
 21
458.27
 31
0.0
  0
LINE
  5
619
330
1F
100
AcDbEntity
  8
0
  6
Continuous
 62
     1
100
AcDbLine
 10
1305.26
 20
458.27
 30
0.0
 11
1315.26
 21
468.27
 31
0.0
  0
TEXT
  5
61A
330
1F
100
AcDbEntity
  8
0
  6
Continuous
 62
     1
100
AcDbText
 10
1285.26
 20
478.27
 30
0.0
 40
17.5
  1
ＡＩＲ
 41
0.5
  7
KANJI9
100
AcDbText
  0
TEXT
  5
61C
330
1F
100
AcDbEntity
  8
0
  6
Continuous
 62
     1
100
AcDbText
 10
1806.81
 20
449.94
 30
0.0
 40
5.0
  1
銘板
 41
1.0
  7
KANJI3
100
AcDbText
  0
TEXT
  5
61D
330
1F
100
AcDbEntity
  8
0
  6
Continuous
 62
     1
100
AcDbText
 10
201.27
 20
220.41
 30
0.0
 40
15.0
  1
ケース：鉄
 41
0.933333333
  7
KANJI8
100
AcDbText
  0
TEXT
  5
61E
330
1F
100
AcDbEntity
  8
0
  6
Continuous
 62
     1
100
AcDbText
 10
201.27
 20
203.41
 30
0.0
 40
15.0
  1
表面処理：鉄　－　マンセル５Ｙ７／１半艶焼付塗装
 41
0.933333333
  7
KANJI8
100
AcDbText
  0
TEXT
  5
61F
330
1F
100
AcDbEntity
  8
0
  6
Continuous
 62
     1
100
AcDbText
 10
201.27
 20
186.41
 30
0.0
 40
15.0
  1
端子カバー：ワンタッチカバー
 41
0.933333333
  7
KANJI10
100
AcDbText
  0
ENDSEC
  0
SECTION
  2
OBJECTS
  0
DICTIONARY
  5
C
330
0
100
AcDbDictionary
280
     0
281
     1
  3
ACAD_GROUP
350
D
  3
ACAD_LAYOUT
350
1A
  3
ACAD_MLINESTYLE
350
17
  3
ACAD_PLOTSETTINGS
350
19
  3
ACAD_PLOTSTYLENAME
350
E
  0
DICTIONARY
  5
D
102
{ACAD_REACTORS
330
C
102
}
330
C
100
AcDbDictionary
280
     0
281
     1
  0
DICTIONARY
  5
1A
102
{ACAD_REACTORS
330
C
102
}
330
C
100
AcDbDictionary
280
     0
281
     1
  3
Model
350
22
  3
ﾚｲｱｳﾄ1
350
1E
  3
ﾚｲｱｳﾄ2
350
26
  0
LAYOUT
  5
22
102
{ACAD_REACTORS
330
1A
102
}
330
1A
100
AcDbPlotSettings
  1

  2

  4

  6

 40
0.0
 41
0.0
 42
0.0
 43
0.0
 44
0.0
 45
0.0
 46
0.0
 47
0.0
 48
0.0
 49
0.0
140
0.0
141
0.0
142
1.0
143
1.0
 70
  1712
 72
     0
 73
     0
 74
     0
  7

 75
     0
147
1.0
148
0.0
149
0.0
100
AcDbLayout
  1
Model
 70
     1
 71
     0
 10
0.0
 20
0.0
 11
0.0
 21
0.0
 12
0.0
 22
0.0
 32
0.0
 14
0.0
 24
0.0
 34
0.0
 15
0.0
 25
0.0
 35
0.0
146
0.0
 13
0.0
 23
0.0
 33
0.0
 16
1.0
 26
0.0
 36
0.0
 17
0.0
 27
1.0
 37
0.0
 76
     0
330
1F
331
0
345
0
346
0
  0
LAYOUT
  5
1E
102
{ACAD_REACTORS
330
1A
102
}
330
1A
100
AcDbPlotSettings
  1

  2

  4

  6

 40
0.0
 41
0.0
 42
0.0
 43
0.0
 44
0.0
 45
0.0
 46
0.0
 47
0.0
 48
0.0
 49
0.0
140
0.0
141
0.0
142
1.0
143
1.0
 70
   688
 72
     0
 73
     0
 74
     5
  7

 75
    16
147
1.0
148
0.0
149
0.0
100
AcDbLayout
  1
ﾚｲｱｳﾄ1
 70
     1
 71
     1
 10
0.0
 20
0.0
 11
0.0
 21
0.0
 12
0.0
 22
0.0
 32
0.0
 14
0.0
 24
0.0
 34
0.0
 15
0.0
 25
0.0
 35
0.0
146
0.0
 13
0.0
 23
0.0
 33
0.0
 16
1.0
 26
0.0
 36
0.0
 17
0.0
 27
1.0
 37
0.0
 76
     0
330
1B
331
0
345
0
346
0
  0
LAYOUT
  5
26
102
{ACAD_REACTORS
330
1A
102
}
330
1A
100
AcDbPlotSettings
  1

  2

  4

  6

 40
0.0
 41
0.0
 42
0.0
 43
0.0
 44
0.0
 45
0.0
 46
0.0
 47
0.0
 48
0.0
 49
0.0
140
0.0
141
0.0
142
1.0
143
1.0
 70
   688
 72
     0
 73
     0
 74
     5
  7

 75
    16
147
1.0
148
0.0
149
0.0
100
AcDbLayout
  1
ﾚｲｱｳﾄ2
 70
     1
 71
     2
 10
0.0
 20
0.0
 11
0.0
 21
0.0
 12
0.0
 22
0.0
 32
0.0
 14
0.0
 24
0.0
 34
0.0
 15
0.0
 25
0.0
 35
0.0
146
0.0
 13
0.0
 23
0.0
 33
0.0
 16
1.0
 26
0.0
 36
0.0
 17
0.0
 27
1.0
 37
0.0
 76
     0
330
23
331
0
345
0
346
0
  0
DICTIONARY
  5
17
102
{ACAD_REACTORS
330
C
102
}
330
C
100
AcDbDictionary
280
     0
281
     1
  3
Standard
350
18
  0
MLINESTYLE
  5
18
102
{ACAD_REACTORS
330
17
102
}
330
17
100
AcDbMlineStyle
  2
STANDARD
 70
     0
  3

 62
   256
 51
90.0
 52
90.0
 71
     2
 49
0.5
 62
   256
  6
ByLayer
 49
-0.5
 62
   256
  6
ByLayer
  0
DICTIONARY
  5
19
102
{ACAD_REACTORS
330
C
102
}
330
C
100
AcDbDictionary
280
     0
281
     1
  0
ACDBDICTIONARYWDFLT
  5
E
330
C
100
AcDbDictionary
281
     0
  3
Normal
350
F
100
AcDbDictionaryWithDefault
340
F
  0
ACDBPLACEHOLDER
  5
F
102
{ACAD_REACTORS
330
E
102
}
330
E
  0
ENDSEC
  0
EOF
