  0
SECTION
  2
HEADER
  9
$ACADVER
  1
AC1015
  9
$ACADMAINTVER
 70
     6
  9
$DWGCODEPAGE
  3
ANSI_932
  9
$INSBASE
 10
0.0
 20
0.0
 30
0.0
  9
$EXTMIN
 10
0.0
 20
0.0
 30
1.000000E+20
  9
$EXTMAX
 10
840.0
 20
594.0
 30
-1.000000E+20
  9
$LIMMIN
 10
0.0
 20
0.0
  9
$LIMMAX
 10
840.0
 20
594.0
  9
$ORTHOMODE
 70
     0
  9
$REGENMODE
 70
     1
  9
$FILLMODE
 70
     1
  9
$QTEXTMODE
 70
     0
  9
$MIRRTEXT
 70
     1
  9
$LTSCALE
 40
1.0
  9
$ATTMODE
 70
     1
  9
$TEXTSIZE
 40
2.5
  9
$TRACEWID
 40
1.0
  9
$TEXTSTYLE
  7
Standard
  9
$CLAYER
  8
0
  9
$CELTYPE
  6
ByLayer
  9
$CECOLOR
 62
   256
  9
$CELTSCALE
 40
1.0
  9
$DISPSILH
 70
     0
  9
$DIMSCALE
 40
1.0
  9
$DIMASZ
 40
2.5
  9
$DIMEXO
 40
0.625
  9
$DIMDLI
 40
3.75
  9
$DIMRND
 40
0.0
  9
$DIMDLE
 40
0.0
  9
$DIMEXE
 40
1.25
  9
$DIMTP
 40
0.0
  9
$DIMTM
 40
0.0
  9
$DIMTXT
 40
2.5
  9
$DIMCEN
 40
2.5
  9
$DIMTSZ
 40
0.0
  9
$DIMTOL
 70
     0
  9
$DIMLIM
 70
     0
  9
$DIMTIH
 70
     0
  9
$DIMTOH
 70
     0
  9
$DIMSE1
 70
     0
  9
$DIMSE2
 70
     0
  9
$DIMTAD
 70
     1
  9
$DIMZIN
 70
     8
  9
$DIMBLK
  1

  9
$DIMASO
 70
     1
  9
$DIMSHO
 70
     1
  9
$DIMPOST
  1

  9
$DIMAPOST
  1

  9
$DIMALT
 70
     0
  9
$DIMALTD
 70
     3
  9
$DIMALTF
 40
0.03937007874016
  9
$DIMLFAC
 40
1.0
  9
$DIMTOFL
 70
     1
  9
$DIMTVP
 40
0.0
  9
$DIMTIX
 70
     0
  9
$DIMSOXD
 70
     0
  9
$DIMSAH
 70
     0
  9
$DIMBLK1
  1

  9
$DIMBLK2
  1

  9
$DIMSTYLE
  2
ISO-25
  9
$DIMCLRD
 70
     0
  9
$DIMCLRE
 70
     0
  9
$DIMCLRT
 70
     0
  9
$DIMTFAC
 40
1.0
  9
$DIMGAP
 40
0.625
  9
$DIMJUST
 70
     0
  9
$DIMSD1
 70
     0
  9
$DIMSD2
 70
     0
  9
$DIMTOLJ
 70
     0
  9
$DIMTZIN
 70
     8
  9
$DIMALTZ
 70
     0
  9
$DIMALTTZ
 70
     0
  9
$DIMUPT
 70
     0
  9
$DIMDEC
 70
     2
  9
$DIMTDEC
 70
     2
  9
$DIMALTU
 70
     2
  9
$DIMALTTD
 70
     3
  9
$DIMTXSTY
  7
Standard
  9
$DIMAUNIT
 70
     0
  9
$DIMADEC
 70
     0
  9
$DIMALTRND
 40
0.0
  9
$DIMAZIN
 70
     0
  9
$DIMDSEP
 70
    46
  9
$DIMATFIT
 70
     3
  9
$DIMFRAC
 70
     0
  9
$DIMLDRBLK
  1

  9
$DIMLUNIT
 70
     2
  9
$DIMLWD
 70
    -2
  9
$DIMLWE
 70
    -2
  9
$DIMTMOVE
 70
     0
  9
$LUNITS
 70
     2
  9
$LUPREC
 70
     4
  9
$SKETCHINC
 40
1.0
  9
$FILLETRAD
 40
10.0
  9
$AUNITS
 70
     0
  9
$AUPREC
 70
     0
  9
$MENU
  1
.
  9
$ELEVATION
 40
0.0
  9
$PELEVATION
 40
0.0
  9
$THICKNESS
 40
0.0
  9
$LIMCHECK
 70
     0
  9
$CHAMFERA
 40
10.0
  9
$CHAMFERB
 40
10.0
  9
$CHAMFERC
 40
20.0
  9
$CHAMFERD
 40
0.0
  9
$SKPOLY
 70
     0
  9
$TDCREATE
 40
2455367.000000
  9
$TDUCREATE
 40
0.000000000
  9
$TDUPDATE
 40
2455367.000000
  9
$TDUUPDATE
 40
2455367.000000
  9
$TDINDWG
 40
0.0
  9
$TDUSRTIMER
 40
0.0
  9
$USRTIMER
 70
     1
  9
$ANGBASE
 50
0.0
  9
$ANGDIR
 70
     0
  9
$PDMODE
 70
     0
  9
$PDSIZE
 40
0.0
  9
$PLINEWID
 40
0.0
  9
$SPLFRAME
 70
     0
  9
$SPLINETYPE
 70
     6
  9
$SPLINESEGS
 70
     8
  9
$HANDSEED
  5
047F
  9
$SURFTAB1
 70
     6
  9
$SURFTAB2
 70
     6
  9
$SURFTYPE
 70
     6
  9
$SURFU
 70
     6
  9
$SURFV
 70
     6
  9
$UCSBASE
  2

  9
$UCSNAME
  2

  9
$UCSORG
 10
0.0
 20
0.0
 30
0.0
  9
$UCSXDIR
 10
1.0
 20
0.0
 30
0.0
  9
$UCSYDIR
 10
0.0
 20
1.0
 30
0.0
  9
$UCSORTHOREF
  2

  9
$UCSORTHOVIEW
 70
     0
  9
$UCSORGTOP
 10
0.0
 20
0.0
 30
0.0
  9
$UCSORGBOTTOM
 10
0.0
 20
0.0
 30
0.0
  9
$UCSORGLEFT
 10
0.0
 20
0.0
 30
0.0
  9
$UCSORGRIGHT
 10
0.0
 20
0.0
 30
0.0
  9
$UCSORGFRONT
 10
0.0
 20
0.0
 30
0.0
  9
$UCSORGBACK
 10
0.0
 20
0.0
 30
0.0
  9
$PUCSBASE
  2

  9
$PUCSNAME
  2

  9
$PUCSORG
 10
0.0
 20
0.0
 30
0.0
  9
$PUCSXDIR
 10
1.0
 20
0.0
 30
0.0
  9
$PUCSYDIR
 10
0.0
 20
1.0
 30
0.0
  9
$PUCSORTHOREF
  2

  9
$PUCSORTHOVIEW
 70
     0
  9
$PUCSORGTOP
 10
0.0
 20
0.0
 30
0.0
  9
$PUCSORGBOTTOM
 10
0.0
 20
0.0
 30
0.0
  9
$PUCSORGLEFT
 10
0.0
 20
0.0
 30
0.0
  9
$PUCSORGRIGHT
 10
0.0
 20
0.0
 30
0.0
  9
$PUCSORGFRONT
 10
0.0
 20
0.0
 30
0.0
  9
$PUCSORGBACK
 10
0.0
 20
0.0
 30
0.0
  9
$USERI1
 70
     0
  9
$USERI2
 70
     0
  9
$USERI3
 70
     0
  9
$USERI4
 70
     0
  9
$USERI5
 70
     0
  9
$USERR1
 40
0.0
  9
$USERR2
 40
0.0
  9
$USERR3
 40
0.0
  9
$USERR4
 40
0.0
  9
$USERR5
 40
0.0
  9
$WORLDVIEW
 70
     1
  9
$SHADEDGE
 70
     3
  9
$SHADEDIF
 70
    70
  9
$TILEMODE
 70
     1
  9
$MAXACTVP
 70
    64
  9
$PINSBASE
 10
0.0
 20
0.0
 30
0.0
  9
$PLIMCHECK
 70
     0
  9
$PEXTMIN
 10
1.000000E+20
 20
1.000000E+20
 30
1.000000E+20
  9
$PEXTMAX
 10
-1.000000E+20
 20
-1.000000E+20
 30
-1.000000E+20
  9
$PLIMMIN
 10
0.0
 20
0.0
  9
$PLIMMAX
 10
0.0
 20
0.0
  9
$UNITMODE
 70
     0
  9
$VISRETAIN
 70
     0
  9
$PLINEGEN
 70
     0
  9
$PSLTSCALE
 70
     1
  9
$TREEDEPTH
 70
  3020
  9
$CMLSTYLE
  2
STANDARD
  9
$CMLJUST
 70
     0
  9
$CMLSCALE
 40
20.0
  9
$PROXYGRAPHICS
 70
     1
  9
$MEASUREMENT
 70
     1
  9
$CELWEIGHT
370
    -1
  9
$ENDCAPS
280
     0
  9
$JOINSTYLE
280
     0
  9
$LWDISPLAY
290
     0
  9
$INSUNITS
 70
     4
  9
$HYPERLINKBASE
  1

  9
$STYLESHEET
  1

  9
$XEDIT
290
     1
  9
$CEPSNTYPE
380
     0
  9
$PSTYLEMODE
290
     1
  9
$FINGERPRINTGUID
  2
{04A81865-96E7-B6B5-667C-2DF1109DA727}
  9
$VERSIONGUID
  2
{DA497C53-AD70-65B9-523A-1A9ED8494849}
  9
$EXTNAMES
290
     1
  9
$PSVPSCALE
 40
0.0
  0
ENDSEC
  0
SECTION
  2
CLASSES
  0
ENDSEC
  0
SECTION
  2
TABLES
  0
TABLE
  2
VPORT
  5
8
330
0
100
AcDbSymbolTable
 70
     3
  0
VPORT
  5
29
330
8
100
AcDbSymbolTableRecord
100
AcDbViewportTableRecord
  2
*Active
 70
     0
 10
0.0
 20
0.0
 11
1.0
 21
1.0
 12
420.0
 22
297.0
 13
0.0
 23
0.0
 14
10.0
 24
10.0
 15
0.0
 25
0.0
 16
0.0
 26
0.0
 36
1.0
 17
0.0
 27
0.0
 37
0.0
 40
594.0
 41
1.414141414
 42
50.0
 43
0.0
 44
0.0
 50
0.0
 51
0.0
 71
     0
 72
     0
 73
     0
 74
     0
 75
     0
 76
     0
 77
     0
 78
     0
281
     0
 65
     0
110
0.0
120
0.0
130
0.0
111
1.0
121
0.0
131
0.0
112
0.0
122
1.0
132
0.0
 79
     0
146
0.0
  0
ENDTAB
  0
TABLE
  2
LTYPE
  5
5
330
0
100
AcDbSymbolTable
 70
     4
  0
LTYPE
  5
14
330
5
100
AcDbSymbolTableRecord
100
AcDbLinetypeTableRecord
  2
ByBlock
 70
     0
  3

 72
    65
 73
     0
 40
0.0
  0
LTYPE
  5
15
330
5
100
AcDbSymbolTableRecord
100
AcDbLinetypeTableRecord
  2
ByLayer
 70
     0
  3

 72
    65
 73
     0
 40
0.0
  0
LTYPE
  5
16
330
5
100
AcDbSymbolTableRecord
100
AcDbLinetypeTableRecord
  2
Continuous
 70
     0
  3
Solid line
 72
    65
 73
     0
 40
0.0
  0
LTYPE
  5
110
330
5
100
AcDbSymbolTableRecord
100
AcDbLinetypeTableRecord
  2
LTYPE1
 70
     0
  3
CENTER
 72
    65
 73
     4
 40
20.0
 49
14.0
 74
     0
 49
-2.0
 74
     0
 49
2.0
 74
     0
 49
-2.0
 74
     0
  0
ENDTAB
  0
TABLE
  2
LAYER
  5
2
330
0
100
AcDbSymbolTable
 70
   128
  0
LAYER
  5
10
330
2
100
AcDbSymbolTableRecord
100
AcDbLayerTableRecord
  2
0
 70
     0
 62
     7
  6
Continuous
290
     1
370
    -3
390
F
  0
LAYER
  5
2A
330
2
100
AcDbSymbolTableRecord
100
AcDbLayerTableRecord
  2
2
 70
     0
 62
     7
  6
Continuous
290
     1
370
    -3
390
F
  0
LAYER
  5
2B
330
2
100
AcDbSymbolTableRecord
100
AcDbLayerTableRecord
  2
3
 70
     0
 62
     7
  6
Continuous
290
     1
370
    -3
390
F
  0
LAYER
  5
2C
330
2
100
AcDbSymbolTableRecord
100
AcDbLayerTableRecord
  2
4
 70
     0
 62
     7
  6
Continuous
290
     1
370
    -3
390
F
  0
LAYER
  5
2D
330
2
100
AcDbSymbolTableRecord
100
AcDbLayerTableRecord
  2
5
 70
     0
 62
     7
  6
Continuous
290
     1
370
    -3
390
F
  0
LAYER
  5
2E
330
2
100
AcDbSymbolTableRecord
100
AcDbLayerTableRecord
  2
6
 70
     0
 62
     7
  6
Continuous
290
     1
370
    -3
390
F
  0
LAYER
  5
2F
330
2
100
AcDbSymbolTableRecord
100
AcDbLayerTableRecord
  2
7
 70
     0
 62
     7
  6
Continuous
290
     1
370
    -3
390
F
  0
LAYER
  5
30
330
2
100
AcDbSymbolTableRecord
100
AcDbLayerTableRecord
  2
8
 70
     0
 62
     7
  6
Continuous
290
     1
370
    -3
390
F
  0
LAYER
  5
31
330
2
100
AcDbSymbolTableRecord
100
AcDbLayerTableRecord
  2
9
 70
     0
 62
     7
  6
Continuous
290
     1
370
    -3
390
F
  0
LAYER
  5
32
330
2
100
AcDbSymbolTableRecord
100
AcDbLayerTableRecord
  2
10
 70
     0
 62
     7
  6
Continuous
290
     1
370
    -3
390
F
  0
LAYER
  5
33
330
2
100
AcDbSymbolTableRecord
100
AcDbLayerTableRecord
  2
11
 70
     0
 62
     7
  6
Continuous
290
     1
370
    -3
390
F
  0
LAYER
  5
34
330
2
100
AcDbSymbolTableRecord
100
AcDbLayerTableRecord
  2
12
 70
     0
 62
     7
  6
Continuous
290
     1
370
    -3
390
F
  0
LAYER
  5
35
330
2
100
AcDbSymbolTableRecord
100
AcDbLayerTableRecord
  2
13
 70
     0
 62
     7
  6
Continuous
290
     1
370
    -3
390
F
  0
LAYER
  5
36
330
2
100
AcDbSymbolTableRecord
100
AcDbLayerTableRecord
  2
14
 70
     0
 62
     7
  6
Continuous
290
     1
370
    -3
390
F
  0
LAYER
  5
37
330
2
100
AcDbSymbolTableRecord
100
AcDbLayerTableRecord
  2
15
 70
     0
 62
     7
  6
Continuous
290
     1
370
    -3
390
F
  0
LAYER
  5
38
330
2
100
AcDbSymbolTableRecord
100
AcDbLayerTableRecord
  2
16
 70
     0
 62
     7
  6
Continuous
290
     1
370
    -3
390
F
  0
LAYER
  5
39
330
2
100
AcDbSymbolTableRecord
100
AcDbLayerTableRecord
  2
17
 70
     0
 62
     7
  6
Continuous
290
     1
370
    -3
390
F
  0
LAYER
  5
3A
330
2
100
AcDbSymbolTableRecord
100
AcDbLayerTableRecord
  2
18
 70
     0
 62
     7
  6
Continuous
290
     1
370
    -3
390
F
  0
LAYER
  5
3B
330
2
100
AcDbSymbolTableRecord
100
AcDbLayerTableRecord
  2
19
 70
     0
 62
     7
  6
Continuous
290
     1
370
    -3
390
F
  0
LAYER
  5
3C
330
2
100
AcDbSymbolTableRecord
100
AcDbLayerTableRecord
  2
20
 70
     0
 62
     7
  6
Continuous
290
     1
370
    -3
390
F
  0
LAYER
  5
3D
330
2
100
AcDbSymbolTableRecord
100
AcDbLayerTableRecord
  2
21
 70
     0
 62
     7
  6
Continuous
290
     1
370
    -3
390
F
  0
LAYER
  5
3E
330
2
100
AcDbSymbolTableRecord
100
AcDbLayerTableRecord
  2
22
 70
     0
 62
     7
  6
Continuous
290
     1
370
    -3
390
F
  0
LAYER
  5
3F
330
2
100
AcDbSymbolTableRecord
100
AcDbLayerTableRecord
  2
23
 70
     0
 62
     7
  6
Continuous
290
     1
370
    -3
390
F
  0
LAYER
  5
40
330
2
100
AcDbSymbolTableRecord
100
AcDbLayerTableRecord
  2
24
 70
     0
 62
     7
  6
Continuous
290
     1
370
    -3
390
F
  0
LAYER
  5
41
330
2
100
AcDbSymbolTableRecord
100
AcDbLayerTableRecord
  2
25
 70
     0
 62
     7
  6
Continuous
290
     1
370
    -3
390
F
  0
LAYER
  5
42
330
2
100
AcDbSymbolTableRecord
100
AcDbLayerTableRecord
  2
26
 70
     0
 62
     7
  6
Continuous
290
     1
370
    -3
390
F
  0
LAYER
  5
43
330
2
100
AcDbSymbolTableRecord
100
AcDbLayerTableRecord
  2
27
 70
     0
 62
     7
  6
Continuous
290
     1
370
    -3
390
F
  0
LAYER
  5
44
330
2
100
AcDbSymbolTableRecord
100
AcDbLayerTableRecord
  2
28
 70
     0
 62
     7
  6
Continuous
290
     1
370
    -3
390
F
  0
LAYER
  5
45
330
2
100
AcDbSymbolTableRecord
100
AcDbLayerTableRecord
  2
29
 70
     0
 62
     7
  6
Continuous
290
     1
370
    -3
390
F
  0
LAYER
  5
46
330
2
100
AcDbSymbolTableRecord
100
AcDbLayerTableRecord
  2
30
 70
     0
 62
     7
  6
Continuous
290
     1
370
    -3
390
F
  0
LAYER
  5
47
330
2
100
AcDbSymbolTableRecord
100
AcDbLayerTableRecord
  2
31
 70
     0
 62
     7
  6
Continuous
290
     1
370
    -3
390
F
  0
LAYER
  5
48
330
2
100
AcDbSymbolTableRecord
100
AcDbLayerTableRecord
  2
32
 70
     0
 62
     7
  6
Continuous
290
     1
370
    -3
390
F
  0
LAYER
  5
49
330
2
100
AcDbSymbolTableRecord
100
AcDbLayerTableRecord
  2
33
 70
     0
 62
     7
  6
Continuous
290
     1
370
    -3
390
F
  0
LAYER
  5
4A
330
2
100
AcDbSymbolTableRecord
100
AcDbLayerTableRecord
  2
34
 70
     0
 62
     7
  6
Continuous
290
     1
370
    -3
390
F
  0
LAYER
  5
4B
330
2
100
AcDbSymbolTableRecord
100
AcDbLayerTableRecord
  2
35
 70
     0
 62
     7
  6
Continuous
290
     1
370
    -3
390
F
  0
LAYER
  5
4C
330
2
100
AcDbSymbolTableRecord
100
AcDbLayerTableRecord
  2
36
 70
     0
 62
     7
  6
Continuous
290
     1
370
    -3
390
F
  0
LAYER
  5
4D
330
2
100
AcDbSymbolTableRecord
100
AcDbLayerTableRecord
  2
37
 70
     0
 62
     7
  6
Continuous
290
     1
370
    -3
390
F
  0
LAYER
  5
4E
330
2
100
AcDbSymbolTableRecord
100
AcDbLayerTableRecord
  2
38
 70
     0
 62
     7
  6
Continuous
290
     1
370
    -3
390
F
  0
LAYER
  5
4F
330
2
100
AcDbSymbolTableRecord
100
AcDbLayerTableRecord
  2
39
 70
     0
 62
     7
  6
Continuous
290
     1
370
    -3
390
F
  0
LAYER
  5
50
330
2
100
AcDbSymbolTableRecord
100
AcDbLayerTableRecord
  2
40
 70
     0
 62
     7
  6
Continuous
290
     1
370
    -3
390
F
  0
LAYER
  5
51
330
2
100
AcDbSymbolTableRecord
100
AcDbLayerTableRecord
  2
41
 70
     0
 62
     7
  6
Continuous
290
     1
370
    -3
390
F
  0
LAYER
  5
52
330
2
100
AcDbSymbolTableRecord
100
AcDbLayerTableRecord
  2
42
 70
     0
 62
     7
  6
Continuous
290
     1
370
    -3
390
F
  0
LAYER
  5
53
330
2
100
AcDbSymbolTableRecord
100
AcDbLayerTableRecord
  2
43
 70
     0
 62
     7
  6
Continuous
290
     1
370
    -3
390
F
  0
LAYER
  5
54
330
2
100
AcDbSymbolTableRecord
100
AcDbLayerTableRecord
  2
44
 70
     0
 62
     7
  6
Continuous
290
     1
370
    -3
390
F
  0
LAYER
  5
55
330
2
100
AcDbSymbolTableRecord
100
AcDbLayerTableRecord
  2
45
 70
     0
 62
     7
  6
Continuous
290
     1
370
    -3
390
F
  0
LAYER
  5
56
330
2
100
AcDbSymbolTableRecord
100
AcDbLayerTableRecord
  2
46
 70
     0
 62
     7
  6
Continuous
290
     1
370
    -3
390
F
  0
LAYER
  5
57
330
2
100
AcDbSymbolTableRecord
100
AcDbLayerTableRecord
  2
47
 70
     0
 62
     7
  6
Continuous
290
     1
370
    -3
390
F
  0
LAYER
  5
58
330
2
100
AcDbSymbolTableRecord
100
AcDbLayerTableRecord
  2
48
 70
     0
 62
     7
  6
Continuous
290
     1
370
    -3
390
F
  0
LAYER
  5
59
330
2
100
AcDbSymbolTableRecord
100
AcDbLayerTableRecord
  2
49
 70
     0
 62
     7
  6
Continuous
290
     1
370
    -3
390
F
  0
LAYER
  5
5A
330
2
100
AcDbSymbolTableRecord
100
AcDbLayerTableRecord
  2
50
 70
     0
 62
     7
  6
Continuous
290
     1
370
    -3
390
F
  0
LAYER
  5
5B
330
2
100
AcDbSymbolTableRecord
100
AcDbLayerTableRecord
  2
51
 70
     0
 62
     7
  6
Continuous
290
     1
370
    -3
390
F
  0
LAYER
  5
5C
330
2
100
AcDbSymbolTableRecord
100
AcDbLayerTableRecord
  2
52
 70
     0
 62
     7
  6
Continuous
290
     1
370
    -3
390
F
  0
LAYER
  5
5D
330
2
100
AcDbSymbolTableRecord
100
AcDbLayerTableRecord
  2
53
 70
     0
 62
     7
  6
Continuous
290
     1
370
    -3
390
F
  0
LAYER
  5
5E
330
2
100
AcDbSymbolTableRecord
100
AcDbLayerTableRecord
  2
54
 70
     0
 62
     7
  6
Continuous
290
     1
370
    -3
390
F
  0
LAYER
  5
5F
330
2
100
AcDbSymbolTableRecord
100
AcDbLayerTableRecord
  2
55
 70
     0
 62
     7
  6
Continuous
290
     1
370
    -3
390
F
  0
LAYER
  5
60
330
2
100
AcDbSymbolTableRecord
100
AcDbLayerTableRecord
  2
56
 70
     0
 62
     7
  6
Continuous
290
     1
370
    -3
390
F
  0
LAYER
  5
61
330
2
100
AcDbSymbolTableRecord
100
AcDbLayerTableRecord
  2
57
 70
     0
 62
     7
  6
Continuous
290
     1
370
    -3
390
F
  0
LAYER
  5
62
330
2
100
AcDbSymbolTableRecord
100
AcDbLayerTableRecord
  2
58
 70
     0
 62
     7
  6
Continuous
290
     1
370
    -3
390
F
  0
LAYER
  5
63
330
2
100
AcDbSymbolTableRecord
100
AcDbLayerTableRecord
  2
59
 70
     0
 62
     7
  6
Continuous
290
     1
370
    -3
390
F
  0
LAYER
  5
64
330
2
100
AcDbSymbolTableRecord
100
AcDbLayerTableRecord
  2
60
 70
     0
 62
     7
  6
Continuous
290
     1
370
    -3
390
F
  0
LAYER
  5
65
330
2
100
AcDbSymbolTableRecord
100
AcDbLayerTableRecord
  2
61
 70
     0
 62
     7
  6
Continuous
290
     1
370
    -3
390
F
  0
LAYER
  5
66
330
2
100
AcDbSymbolTableRecord
100
AcDbLayerTableRecord
  2
62
 70
     0
 62
     7
  6
Continuous
290
     1
370
    -3
390
F
  0
LAYER
  5
67
330
2
100
AcDbSymbolTableRecord
100
AcDbLayerTableRecord
  2
63
 70
     0
 62
     7
  6
Continuous
290
     1
370
    -3
390
F
  0
LAYER
  5
68
330
2
100
AcDbSymbolTableRecord
100
AcDbLayerTableRecord
  2
64
 70
     0
 62
     7
  6
Continuous
290
     1
370
    -3
390
F
  0
LAYER
  5
69
330
2
100
AcDbSymbolTableRecord
100
AcDbLayerTableRecord
  2
65
 70
     0
 62
     7
  6
Continuous
290
     1
370
    -3
390
F
  0
LAYER
  5
6A
330
2
100
AcDbSymbolTableRecord
100
AcDbLayerTableRecord
  2
66
 70
     0
 62
     7
  6
Continuous
290
     1
370
    -3
390
F
  0
LAYER
  5
6B
330
2
100
AcDbSymbolTableRecord
100
AcDbLayerTableRecord
  2
67
 70
     0
 62
     7
  6
Continuous
290
     1
370
    -3
390
F
  0
LAYER
  5
6C
330
2
100
AcDbSymbolTableRecord
100
AcDbLayerTableRecord
  2
68
 70
     0
 62
     7
  6
Continuous
290
     1
370
    -3
390
F
  0
LAYER
  5
6D
330
2
100
AcDbSymbolTableRecord
100
AcDbLayerTableRecord
  2
69
 70
     0
 62
     7
  6
Continuous
290
     1
370
    -3
390
F
  0
LAYER
  5
6E
330
2
100
AcDbSymbolTableRecord
100
AcDbLayerTableRecord
  2
70
 70
     0
 62
     7
  6
Continuous
290
     1
370
    -3
390
F
  0
LAYER
  5
6F
330
2
100
AcDbSymbolTableRecord
100
AcDbLayerTableRecord
  2
71
 70
     0
 62
     7
  6
Continuous
290
     1
370
    -3
390
F
  0
LAYER
  5
70
330
2
100
AcDbSymbolTableRecord
100
AcDbLayerTableRecord
  2
72
 70
     0
 62
     7
  6
Continuous
290
     1
370
    -3
390
F
  0
LAYER
  5
71
330
2
100
AcDbSymbolTableRecord
100
AcDbLayerTableRecord
  2
73
 70
     0
 62
     7
  6
Continuous
290
     1
370
    -3
390
F
  0
LAYER
  5
72
330
2
100
AcDbSymbolTableRecord
100
AcDbLayerTableRecord
  2
74
 70
     0
 62
     7
  6
Continuous
290
     1
370
    -3
390
F
  0
LAYER
  5
73
330
2
100
AcDbSymbolTableRecord
100
AcDbLayerTableRecord
  2
75
 70
     0
 62
     7
  6
Continuous
290
     1
370
    -3
390
F
  0
LAYER
  5
74
330
2
100
AcDbSymbolTableRecord
100
AcDbLayerTableRecord
  2
76
 70
     0
 62
     7
  6
Continuous
290
     1
370
    -3
390
F
  0
LAYER
  5
75
330
2
100
AcDbSymbolTableRecord
100
AcDbLayerTableRecord
  2
77
 70
     0
 62
     7
  6
Continuous
290
     1
370
    -3
390
F
  0
LAYER
  5
76
330
2
100
AcDbSymbolTableRecord
100
AcDbLayerTableRecord
  2
78
 70
     0
 62
     7
  6
Continuous
290
     1
370
    -3
390
F
  0
LAYER
  5
77
330
2
100
AcDbSymbolTableRecord
100
AcDbLayerTableRecord
  2
79
 70
     0
 62
     7
  6
Continuous
290
     1
370
    -3
390
F
  0
LAYER
  5
78
330
2
100
AcDbSymbolTableRecord
100
AcDbLayerTableRecord
  2
80
 70
     0
 62
     7
  6
Continuous
290
     1
370
    -3
390
F
  0
LAYER
  5
79
330
2
100
AcDbSymbolTableRecord
100
AcDbLayerTableRecord
  2
81
 70
     0
 62
     7
  6
Continuous
290
     1
370
    -3
390
F
  0
LAYER
  5
7A
330
2
100
AcDbSymbolTableRecord
100
AcDbLayerTableRecord
  2
82
 70
     0
 62
     7
  6
Continuous
290
     1
370
    -3
390
F
  0
LAYER
  5
7B
330
2
100
AcDbSymbolTableRecord
100
AcDbLayerTableRecord
  2
83
 70
     0
 62
     7
  6
Continuous
290
     1
370
    -3
390
F
  0
LAYER
  5
7C
330
2
100
AcDbSymbolTableRecord
100
AcDbLayerTableRecord
  2
84
 70
     0
 62
     7
  6
Continuous
290
     1
370
    -3
390
F
  0
LAYER
  5
7D
330
2
100
AcDbSymbolTableRecord
100
AcDbLayerTableRecord
  2
85
 70
     0
 62
     7
  6
Continuous
290
     1
370
    -3
390
F
  0
LAYER
  5
7E
330
2
100
AcDbSymbolTableRecord
100
AcDbLayerTableRecord
  2
86
 70
     0
 62
     7
  6
Continuous
290
     1
370
    -3
390
F
  0
LAYER
  5
7F
330
2
100
AcDbSymbolTableRecord
100
AcDbLayerTableRecord
  2
87
 70
     0
 62
     7
  6
Continuous
290
     1
370
    -3
390
F
  0
LAYER
  5
80
330
2
100
AcDbSymbolTableRecord
100
AcDbLayerTableRecord
  2
88
 70
     0
 62
     7
  6
Continuous
290
     1
370
    -3
390
F
  0
LAYER
  5
81
330
2
100
AcDbSymbolTableRecord
100
AcDbLayerTableRecord
  2
89
 70
     0
 62
     7
  6
Continuous
290
     1
370
    -3
390
F
  0
LAYER
  5
82
330
2
100
AcDbSymbolTableRecord
100
AcDbLayerTableRecord
  2
90
 70
     0
 62
     7
  6
Continuous
290
     1
370
    -3
390
F
  0
LAYER
  5
83
330
2
100
AcDbSymbolTableRecord
100
AcDbLayerTableRecord
  2
91
 70
     0
 62
     7
  6
Continuous
290
     1
370
    -3
390
F
  0
LAYER
  5
84
330
2
100
AcDbSymbolTableRecord
100
AcDbLayerTableRecord
  2
92
 70
     0
 62
     7
  6
Continuous
290
     1
370
    -3
390
F
  0
LAYER
  5
85
330
2
100
AcDbSymbolTableRecord
100
AcDbLayerTableRecord
  2
93
 70
     0
 62
     7
  6
Continuous
290
     1
370
    -3
390
F
  0
LAYER
  5
86
330
2
100
AcDbSymbolTableRecord
100
AcDbLayerTableRecord
  2
94
 70
     0
 62
     7
  6
Continuous
290
     1
370
    -3
390
F
  0
LAYER
  5
87
330
2
100
AcDbSymbolTableRecord
100
AcDbLayerTableRecord
  2
95
 70
     0
 62
     7
  6
Continuous
290
     1
370
    -3
390
F
  0
LAYER
  5
88
330
2
100
AcDbSymbolTableRecord
100
AcDbLayerTableRecord
  2
96
 70
     0
 62
     7
  6
Continuous
290
     1
370
    -3
390
F
  0
LAYER
  5
89
330
2
100
AcDbSymbolTableRecord
100
AcDbLayerTableRecord
  2
97
 70
     0
 62
     7
  6
Continuous
290
     1
370
    -3
390
F
  0
LAYER
  5
8A
330
2
100
AcDbSymbolTableRecord
100
AcDbLayerTableRecord
  2
98
 70
     0
 62
     7
  6
Continuous
290
     1
370
    -3
390
F
  0
LAYER
  5
8B
330
2
100
AcDbSymbolTableRecord
100
AcDbLayerTableRecord
  2
99
 70
     0
 62
     7
  6
Continuous
290
     1
370
    -3
390
F
  0
LAYER
  5
8C
330
2
100
AcDbSymbolTableRecord
100
AcDbLayerTableRecord
  2
100
 70
     0
 62
     7
  6
Continuous
290
     1
370
    -3
390
F
  0
LAYER
  5
8D
330
2
100
AcDbSymbolTableRecord
100
AcDbLayerTableRecord
  2
101
 70
     0
 62
     7
  6
Continuous
290
     1
370
    -3
390
F
  0
LAYER
  5
8E
330
2
100
AcDbSymbolTableRecord
100
AcDbLayerTableRecord
  2
102
 70
     0
 62
     7
  6
Continuous
290
     1
370
    -3
390
F
  0
LAYER
  5
8F
330
2
100
AcDbSymbolTableRecord
100
AcDbLayerTableRecord
  2
103
 70
     0
 62
     7
  6
Continuous
290
     1
370
    -3
390
F
  0
LAYER
  5
90
330
2
100
AcDbSymbolTableRecord
100
AcDbLayerTableRecord
  2
104
 70
     0
 62
     7
  6
Continuous
290
     1
370
    -3
390
F
  0
LAYER
  5
91
330
2
100
AcDbSymbolTableRecord
100
AcDbLayerTableRecord
  2
105
 70
     0
 62
     7
  6
Continuous
290
     1
370
    -3
390
F
  0
LAYER
  5
92
330
2
100
AcDbSymbolTableRecord
100
AcDbLayerTableRecord
  2
106
 70
     0
 62
     7
  6
Continuous
290
     1
370
    -3
390
F
  0
LAYER
  5
93
330
2
100
AcDbSymbolTableRecord
100
AcDbLayerTableRecord
  2
107
 70
     0
 62
     7
  6
Continuous
290
     1
370
    -3
390
F
  0
LAYER
  5
94
330
2
100
AcDbSymbolTableRecord
100
AcDbLayerTableRecord
  2
108
 70
     0
 62
     7
  6
Continuous
290
     1
370
    -3
390
F
  0
LAYER
  5
95
330
2
100
AcDbSymbolTableRecord
100
AcDbLayerTableRecord
  2
109
 70
     0
 62
     7
  6
Continuous
290
     1
370
    -3
390
F
  0
LAYER
  5
96
330
2
100
AcDbSymbolTableRecord
100
AcDbLayerTableRecord
  2
110
 70
     0
 62
     7
  6
Continuous
290
     1
370
    -3
390
F
  0
LAYER
  5
97
330
2
100
AcDbSymbolTableRecord
100
AcDbLayerTableRecord
  2
111
 70
     0
 62
     7
  6
Continuous
290
     1
370
    -3
390
F
  0
LAYER
  5
98
330
2
100
AcDbSymbolTableRecord
100
AcDbLayerTableRecord
  2
112
 70
     0
 62
     7
  6
Continuous
290
     1
370
    -3
390
F
  0
LAYER
  5
99
330
2
100
AcDbSymbolTableRecord
100
AcDbLayerTableRecord
  2
113
 70
     0
 62
     7
  6
Continuous
290
     1
370
    -3
390
F
  0
LAYER
  5
9A
330
2
100
AcDbSymbolTableRecord
100
AcDbLayerTableRecord
  2
114
 70
     0
 62
     7
  6
Continuous
290
     1
370
    -3
390
F
  0
LAYER
  5
9B
330
2
100
AcDbSymbolTableRecord
100
AcDbLayerTableRecord
  2
115
 70
     0
 62
     7
  6
Continuous
290
     1
370
    -3
390
F
  0
LAYER
  5
9C
330
2
100
AcDbSymbolTableRecord
100
AcDbLayerTableRecord
  2
116
 70
     0
 62
     7
  6
Continuous
290
     1
370
    -3
390
F
  0
LAYER
  5
9D
330
2
100
AcDbSymbolTableRecord
100
AcDbLayerTableRecord
  2
117
 70
     0
 62
     7
  6
Continuous
290
     1
370
    -3
390
F
  0
LAYER
  5
9E
330
2
100
AcDbSymbolTableRecord
100
AcDbLayerTableRecord
  2
118
 70
     0
 62
     7
  6
Continuous
290
     1
370
    -3
390
F
  0
LAYER
  5
9F
330
2
100
AcDbSymbolTableRecord
100
AcDbLayerTableRecord
  2
119
 70
     0
 62
     7
  6
Continuous
290
     1
370
    -3
390
F
  0
LAYER
  5
A0
330
2
100
AcDbSymbolTableRecord
100
AcDbLayerTableRecord
  2
120
 70
     0
 62
     7
  6
Continuous
290
     1
370
    -3
390
F
  0
LAYER
  5
A1
330
2
100
AcDbSymbolTableRecord
100
AcDbLayerTableRecord
  2
121
 70
     0
 62
     7
  6
Continuous
290
     1
370
    -3
390
F
  0
LAYER
  5
A2
330
2
100
AcDbSymbolTableRecord
100
AcDbLayerTableRecord
  2
122
 70
     0
 62
     7
  6
Continuous
290
     1
370
    -3
390
F
  0
LAYER
  5
A3
330
2
100
AcDbSymbolTableRecord
100
AcDbLayerTableRecord
  2
123
 70
     0
 62
     7
  6
Continuous
290
     1
370
    -3
390
F
  0
LAYER
  5
A4
330
2
100
AcDbSymbolTableRecord
100
AcDbLayerTableRecord
  2
124
 70
     0
 62
     7
  6
Continuous
290
     1
370
    -3
390
F
  0
LAYER
  5
A5
330
2
100
AcDbSymbolTableRecord
100
AcDbLayerTableRecord
  2
125
 70
     0
 62
     7
  6
Continuous
290
     1
370
    -3
390
F
  0
LAYER
  5
A6
330
2
100
AcDbSymbolTableRecord
100
AcDbLayerTableRecord
  2
126
 70
     0
 62
     7
  6
Continuous
290
     1
370
    -3
390
F
  0
LAYER
  5
A7
330
2
100
AcDbSymbolTableRecord
100
AcDbLayerTableRecord
  2
127
 70
     0
 62
     7
  6
Continuous
290
     1
370
    -3
390
F
  0
LAYER
  5
A8
330
2
100
AcDbSymbolTableRecord
100
AcDbLayerTableRecord
  2
128
 70
     0
 62
     7
  6
Continuous
290
     1
370
    -3
390
F
  0
ENDTAB
  0
TABLE
  2
STYLE
  5
3
330
0
100
AcDbSymbolTable
 70
    12
  0
STYLE
  5
11
330
3
100
AcDbSymbolTableRecord
100
AcDbTextStyleTableRecord
  2
Standard
 70
     0
 40
0.0
 41
1.0
 50
0.0
 71
     0
 42
2.5
  3
txt
  4
extfont.shx
  0
STYLE
  5
36A
330
3
100
AcDbSymbolTableRecord
100
AcDbTextStyleTableRecord
  2
KANJI0
 70
     0
 40
6.0
 41
0.333333333
 50
0.0
 71
     0
 42
6.0
  3
txt.shx
  4
extfont.shx
  0
STYLE
  5
3A0
330
3
100
AcDbSymbolTableRecord
100
AcDbTextStyleTableRecord
  2
KANJI1
 70
     0
 40
3.0
 41
0.6
 50
0.0
 71
     0
 42
3.0
  3
txt.shx
  4
extfont.shx
  0
STYLE
  5
3A2
330
3
100
AcDbSymbolTableRecord
100
AcDbTextStyleTableRecord
  2
KANJI2
 70
     0
 40
5.0
 41
0.36
 50
0.0
 71
     0
 42
5.0
  3
txt.shx
  4
extfont.shx
  0
STYLE
  5
3A4
330
3
100
AcDbSymbolTableRecord
100
AcDbTextStyleTableRecord
  2
KANJI3
 70
     0
 40
4.0
 41
0.375
 50
0.0
 71
     0
 42
4.0
  3
txt.shx
  4
extfont.shx
  0
STYLE
  5
3A6
330
3
100
AcDbSymbolTableRecord
100
AcDbTextStyleTableRecord
  2
KANJI4
 70
     0
 40
1.6
 41
0.4375
 50
0.0
 71
     0
 42
1.6
  3
txt.shx
  4
extfont.shx
  0
STYLE
  5
3A8
330
3
100
AcDbSymbolTableRecord
100
AcDbTextStyleTableRecord
  2
KANJI5
 70
     0
 40
5.0
 41
0.4
 50
0.0
 71
     0
 42
5.0
  3
txt.shx
  4
extfont.shx
  0
STYLE
  5
3AA
330
3
100
AcDbSymbolTableRecord
100
AcDbTextStyleTableRecord
  2
KANJI6
 70
     0
 40
3.0
 41
0.266666667
 50
0.0
 71
     0
 42
3.0
  3
txt.shx
  4
extfont.shx
  0
STYLE
  5
3B3
330
3
100
AcDbSymbolTableRecord
100
AcDbTextStyleTableRecord
  2
KANJI7
 70
     0
 40
6.0
 41
0.933333333
 50
15.0
 71
     0
 42
6.0
  3
txt.shx
  4
extfont.shx
  0
STYLE
  5
3E7
330
3
100
AcDbSymbolTableRecord
100
AcDbTextStyleTableRecord
  2
KANJI8
 70
     0
 40
5.0
 41
1.0
 50
0.0
 71
     0
 42
5.0
  3
txt.shx
  4
extfont.shx
  0
STYLE
  5
46C
330
3
100
AcDbSymbolTableRecord
100
AcDbTextStyleTableRecord
  2
KANJI9
 70
     0
 40
5.0
 41
1.0
 50
0.0
 71
     0
 42
5.0
  3
txt.shx
  4
extfont.shx
  0
STYLE
  5
47C
330
3
100
AcDbSymbolTableRecord
100
AcDbTextStyleTableRecord
  2
KANJI10
 70
     0
 40
6.0
 41
0.9
 50
15.0
 71
     0
 42
6.0
  3
txt.shx
  4
extfont.shx
  0
ENDTAB
  0
TABLE
  2
VIEW
  5
6
330
0
100
AcDbSymbolTable
 70
     0
  0
ENDTAB
  0
TABLE
  2
UCS
  5
7
330
0
100
AcDbSymbolTable
 70
     0
  0
ENDTAB
  0
TABLE
  2
APPID
  5
9
330
0
100
AcDbSymbolTable
 70
     1
  0
APPID
  5
12
330
9
100
AcDbSymbolTableRecord
100
AcDbRegAppTableRecord
  2
ACAD
 70
     0
  0
ENDTAB
  0
TABLE
  2
DIMSTYLE
  5
A
330
0
100
AcDbSymbolTable
 70
     1
100
AcDbDimStyleTable
 71
     0
  0
DIMSTYLE
105
27
330
A
100
AcDbSymbolTableRecord
100
AcDbDimStyleTableRecord
  2
ISO-25
 70
     0
  3

  4

 40
1.0
 41
2.5
 42
0.625
 43
3.75
 44
1.25
 45
0.0
 46
0.0
 47
0.0
 48
0.0
 71
     0
 72
     0
 73
     0
 74
     0
 75
     0
 76
     0
 77
     1
 78
     8
 79
     0
140
2.5
141
2.5
142
0.0
143
0.039370079
144
1.0
145
0.0
146
1.0
147
0.625
148
0.0
170
     0
171
     3
172
     1
173
     0
174
     0
175
     0
176
     0
177
     0
178
     0
179
     0
270
     2
271
     2
272
     2
273
     2
274
     3
275
     0
276
     0
277
     2
278
    46
279
     0
280
     0
281
     0
282
     0
283
     1
284
     8
285
     0
286
     0
288
     0
289
     0
340
11
341
0
342
0
343
0
344
0
371
    -2
372
    -2
  0
ENDTAB
  0
TABLE
  2
BLOCK_RECORD
  5
1
330
0
100
AcDbSymbolTable
 70
     3
  0
BLOCK_RECORD
  5
1F
330
1
100
AcDbSymbolTableRecord
100
AcDbBlockTableRecord
  2
*Model_Space
340
22
  0
BLOCK_RECORD
  5
1B
330
1
100
AcDbSymbolTableRecord
100
AcDbBlockTableRecord
  2
*Paper_Space
340
1E
  0
BLOCK_RECORD
  5
23
330
1
100
AcDbSymbolTableRecord
100
AcDbBlockTableRecord
  2
*Paper_Space0
340
26
  0
ENDTAB
  0
ENDSEC
  0
SECTION
  2
BLOCKS
  0
BLOCK
  5
1C
330
1B
100
AcDbEntity
 67
     1
  8
0
100
AcDbBlockBegin
  2
*Paper_Space
 70
     0
 10
0.0
 20
0.0
 30
0.0
  3
*Paper_Space
  1

  0
ENDBLK
  5
1D
330
1B
100
AcDbEntity
  8
0
100
AcDbBlockEnd
  0
BLOCK
  5
20
330
1F
100
AcDbEntity
  8
0
100
AcDbBlockBegin
  2
*Model_Space
 70
     0
 10
0.0
 20
0.0
 30
0.0
  3
*Model_Space
  1

  0
ENDBLK
  5
21
330
1F
100
AcDbEntity
  8
0
100
AcDbBlockEnd
  0
BLOCK
  5
24
330
23
100
AcDbEntity
 67
     1
  8
0
100
AcDbBlockBegin
  2
*Paper_Space0
 70
     0
 10
0.0
 20
0.0
 30
0.0
  3
*Paper_Space0
  1

  0
ENDBLK
  5
25
330
23
100
AcDbEntity
  8
0
100
AcDbBlockEnd
  0
ENDSEC
  0
SECTION
  2
ENTITIES
  0
LINE
  5
A9
330
1F
100
AcDbEntity
  8
0
  6
Continuous
 62
     1
100
AcDbLine
 10
406.242640687
 20
164.982640687
 30
0.0
 11
406.242640687
 21
162.482640687
 31
0.0
  0
LINE
  5
AA
330
1F
100
AcDbEntity
  8
0
  6
Continuous
 62
     1
100
AcDbLine
 10
406.242640687
 20
162.482640687
 30
0.0
 11
410.242640687
 21
162.482640687
 31
0.0
  0
LINE
  5
AB
330
1F
100
AcDbEntity
  8
0
  6
Continuous
 62
     1
100
AcDbLine
 10
410.242640687
 20
162.482640687
 30
0.0
 11
410.242640687
 21
150.482640687
 31
0.0
  0
LINE
  5
AC
330
1F
100
AcDbEntity
  8
0
  6
Continuous
 62
     1
100
AcDbLine
 10
410.242640687
 20
150.482640687
 30
0.0
 11
406.242640687
 21
150.482640687
 31
0.0
  0
LINE
  5
AD
330
1F
100
AcDbEntity
  8
0
  6
Continuous
 62
     1
100
AcDbLine
 10
406.242640687
 20
150.482640687
 30
0.0
 11
406.242640687
 21
147.982640687
 31
0.0
  0
ARC
  5
AE
330
1F
100
AcDbEntity
  8
0
  6
Continuous
 62
     1
100
AcDbCircle
 10
418.242640687
 20
163.982640687
 30
0.0
 40
1.0
100
AcDbArc
 50
0.0
 51
180.0
  0
ARC
  5
AF
330
1F
100
AcDbEntity
  8
0
  6
Continuous
 62
     1
100
AcDbCircle
 10
418.242640687
 20
148.982640687
 30
0.0
 40
1.0
100
AcDbArc
 50
180.0
 51
270.0
  0
ARC
  5
B0
330
1F
100
AcDbEntity
  8
0
  6
Continuous
 62
     1
100
AcDbCircle
 10
418.242640687
 20
148.982640687
 30
0.0
 40
1.0
100
AcDbArc
 50
270.0
 51
0.0
  0
LINE
  5
B1
330
1F
100
AcDbEntity
  8
0
  6
Continuous
 62
     1
100
AcDbLine
 10
419.242640687
 20
148.982640687
 30
0.0
 11
419.242640687
 21
163.982640687
 31
0.0
  0
LINE
  5
B2
330
1F
100
AcDbEntity
  8
0
  6
Continuous
 62
     1
100
AcDbLine
 10
417.242640687
 20
163.982640687
 30
0.0
 11
417.242640687
 21
162.982640687
 31
0.0
  0
LINE
  5
B3
330
1F
100
AcDbEntity
  8
0
  6
Continuous
 62
     1
100
AcDbLine
 10
417.242640687
 20
162.982640687
 30
0.0
 11
416.242640687
 21
162.982640687
 31
0.0
  0
LINE
  5
B4
330
1F
100
AcDbEntity
  8
0
  6
Continuous
 62
     1
100
AcDbLine
 10
417.242640687
 20
148.982640687
 30
0.0
 11
417.242640687
 21
149.982640687
 31
0.0
  0
LINE
  5
B5
330
1F
100
AcDbEntity
  8
0
  6
Continuous
 62
     1
100
AcDbLine
 10
417.242640687
 20
149.982640687
 30
0.0
 11
416.242640687
 21
149.982640687
 31
0.0
  0
LINE
  5
B6
330
1F
100
AcDbEntity
  8
0
  6
Continuous
 62
     1
100
AcDbLine
 10
416.242640687
 20
162.982640687
 30
0.0
 11
414.242640687
 21
164.982640687
 31
0.0
  0
LINE
  5
B7
330
1F
100
AcDbEntity
  8
0
  6
Continuous
 62
     1
100
AcDbLine
 10
416.242640687
 20
149.982640687
 30
0.0
 11
414.242640687
 21
147.982640687
 31
0.0
  0
LINE
  5
B8
330
1F
100
AcDbEntity
  8
0
  6
Continuous
 62
     1
100
AcDbLine
 10
414.242640687
 20
147.982640687
 30
0.0
 11
406.242640687
 21
147.982640687
 31
0.0
  0
LINE
  5
B9
330
1F
100
AcDbEntity
  8
0
  6
Continuous
 62
     1
100
AcDbLine
 10
414.242640687
 20
164.982640687
 30
0.0
 11
406.242640687
 21
164.982640687
 31
0.0
  0
LINE
  5
BA
330
1F
100
AcDbEntity
  8
0
  6
Continuous
 62
     1
100
AcDbLine
 10
406.242640687
 20
164.982640687
 30
0.0
 11
402.942640687
 21
164.982640687
 31
0.0
  0
LINE
  5
BB
330
1F
100
AcDbEntity
  8
0
  6
Continuous
 62
     1
100
AcDbLine
 10
402.942640687
 20
164.982640687
 30
0.0
 11
402.942640687
 21
147.982640687
 31
0.0
  0
LINE
  5
BC
330
1F
100
AcDbEntity
  8
0
  6
Continuous
 62
     1
100
AcDbLine
 10
402.942640687
 20
147.982640687
 30
0.0
 11
406.242640687
 21
147.982640687
 31
0.0
  0
LINE
  5
BD
330
1F
100
AcDbEntity
  8
0
  6
Continuous
 62
     1
100
AcDbLine
 10
402.942640687
 20
205.982640687
 30
0.0
 11
402.942640687
 21
222.982640687
 31
0.0
  0
LINE
  5
BE
330
1F
100
AcDbEntity
  8
0
  6
Continuous
 62
     1
100
AcDbLine
 10
404.942640687
 20
185.482640687
 30
0.0
 11
403.942640687
 21
184.482640687
 31
0.0
  0
LINE
  5
BF
330
1F
100
AcDbEntity
  8
0
  6
Continuous
 62
     1
100
AcDbLine
 10
404.942640687
 20
186.482640687
 30
0.0
 11
403.942640687
 21
185.482640687
 31
0.0
  0
LINE
  5
C0
330
1F
100
AcDbEntity
  8
0
  6
Continuous
 62
     1
100
AcDbLine
 10
403.942640687
 20
181.482640687
 30
0.0
 11
404.942640687
 21
181.482640687
 31
0.0
  0
LINE
  5
C1
330
1F
100
AcDbEntity
  8
0
  6
Continuous
 62
     1
100
AcDbLine
 10
404.942640687
 20
181.482640687
 30
0.0
 11
404.942640687
 21
189.482640687
 31
0.0
  0
LINE
  5
C2
330
1F
100
AcDbEntity
  8
0
  6
Continuous
 62
     1
100
AcDbLine
 10
403.942640687
 20
189.482640687
 30
0.0
 11
404.942640687
 21
189.482640687
 31
0.0
  0
ARC
  5
C3
330
1F
100
AcDbEntity
  8
0
  6
Continuous
 62
     1
100
AcDbCircle
 10
404.942640687
 20
183.982640687
 30
0.0
 40
2.5
100
AcDbArc
 50
270.0
 51
0.0
  0
ARC
  5
C4
330
1F
100
AcDbEntity
  8
0
  6
Continuous
 62
     1
100
AcDbCircle
 10
404.942640687
 20
186.982640687
 30
0.0
 40
2.5
100
AcDbArc
 50
0.0
 51
90.0
  0
LINE
  5
C5
330
1F
100
AcDbEntity
  8
0
  6
Continuous
 62
     1
100
AcDbLine
 10
407.442640687
 20
186.982640687
 30
0.0
 11
407.442640687
 21
183.982640687
 31
0.0
  0
LINE
  5
C6
330
1F
100
AcDbEntity
  8
0
  6
Continuous
 62
     1
100
AcDbLine
 10
403.942640687
 20
181.482640687
 30
0.0
 11
402.992640687
 21
181.482640687
 31
0.0
  0
LINE
  5
C7
330
1F
100
AcDbEntity
  8
0
  6
Continuous
 62
     1
100
AcDbLine
 10
402.992640687
 20
181.482640687
 30
0.0
 11
402.942640687
 21
189.482640687
 31
0.0
  0
LINE
  5
C8
330
1F
100
AcDbEntity
  8
0
  6
Continuous
 62
     1
100
AcDbLine
 10
402.942640687
 20
189.482640687
 30
0.0
 11
403.942640687
 21
189.482640687
 31
0.0
  0
LINE
  5
C9
330
1F
100
AcDbEntity
  8
0
  6
Continuous
 62
     1
100
AcDbLine
 10
403.942640687
 20
189.482640687
 30
0.0
 11
403.942640687
 21
181.482640687
 31
0.0
  0
LINE
  5
CA
330
1F
100
AcDbEntity
  8
0
  6
Continuous
 62
     2
100
AcDbLine
 10
402.942640687
 20
227.982640687
 30
0.0
 11
197.942640687
 21
227.982640687
 31
0.0
  0
LINE
  5
CB
330
1F
100
AcDbEntity
  8
0
  6
Continuous
 62
     2
100
AcDbLine
 10
197.942640687
 20
227.982640687
 30
0.0
 11
197.942640687
 21
142.982640687
 31
0.0
  0
LINE
  5
CC
330
1F
100
AcDbEntity
  8
0
  6
Continuous
 62
     2
100
AcDbLine
 10
197.942640687
 20
142.982640687
 30
0.0
 11
402.942640687
 21
142.982640687
 31
0.0
  0
LINE
  5
CD
330
1F
100
AcDbEntity
  8
0
  6
Continuous
 62
     2
100
AcDbLine
 10
402.942640687
 20
142.982640687
 30
0.0
 11
402.942640687
 21
227.982640687
 31
0.0
  0
ARC
  5
CE
330
1F
100
AcDbEntity
  8
0
  6
Continuous
 62
     2
100
AcDbCircle
 10
199.942640687
 20
123.982640687
 30
0.0
 40
1.0
100
AcDbArc
 50
180.0
 51
0.0
  0
LINE
  5
CF
330
1F
100
AcDbEntity
  8
0
  6
Continuous
 62
     2
100
AcDbLine
 10
198.942640687
 20
123.982640687
 30
0.0
 11
198.942640687
 21
142.982640687
 31
0.0
  0
LINE
  5
D0
330
1F
100
AcDbEntity
  8
0
  6
Continuous
 62
     2
100
AcDbLine
 10
200.942640687
 20
123.982640687
 30
0.0
 11
200.942640687
 21
137.582640687
 31
0.0
  0
LINE
  5
D1
330
1F
100
AcDbEntity
  8
0
  6
Continuous
 62
     2
100
AcDbLine
 10
213.192640687
 20
137.582640687
 30
0.0
 11
213.192640687
 21
123.982640687
 31
0.0
  0
ARC
  5
D2
330
1F
100
AcDbEntity
  8
0
  6
Continuous
 62
     2
100
AcDbCircle
 10
214.192640687
 20
123.982640687
 30
0.0
 40
1.0
100
AcDbArc
 50
180.0
 51
0.0
  0
LINE
  5
D3
330
1F
100
AcDbEntity
  8
0
  6
Continuous
 62
     2
100
AcDbLine
 10
215.192640687
 20
123.982640687
 30
0.0
 11
215.192640687
 21
137.582640687
 31
0.0
  0
LINE
  5
D4
330
1F
100
AcDbEntity
  8
0
  6
Continuous
 62
     2
100
AcDbLine
 10
215.192640687
 20
137.582640687
 30
0.0
 11
225.692640687
 21
137.582640687
 31
0.0
  0
LINE
  5
D5
330
1F
100
AcDbEntity
  8
0
  6
Continuous
 62
     2
100
AcDbLine
 10
225.692640687
 20
137.582640687
 30
0.0
 11
225.692640687
 21
123.982640687
 31
0.0
  0
ARC
  5
D6
330
1F
100
AcDbEntity
  8
0
  6
Continuous
 62
     2
100
AcDbCircle
 10
226.692640687
 20
123.982640687
 30
0.0
 40
1.0
100
AcDbArc
 50
180.0
 51
0.0
  0
LINE
  5
D7
330
1F
100
AcDbEntity
  8
0
  6
Continuous
 62
     2
100
AcDbLine
 10
227.692640687
 20
123.982640687
 30
0.0
 11
227.692640687
 21
137.582640687
 31
0.0
  0
LINE
  5
D8
330
1F
100
AcDbEntity
  8
0
  6
Continuous
 62
     2
100
AcDbLine
 10
227.692640687
 20
137.582640687
 30
0.0
 11
238.192640687
 21
137.582640687
 31
0.0
  0
LINE
  5
D9
330
1F
100
AcDbEntity
  8
0
  6
Continuous
 62
     2
100
AcDbLine
 10
238.192640687
 20
137.582640687
 30
0.0
 11
238.192640687
 21
123.982640687
 31
0.0
  0
ARC
  5
DA
330
1F
100
AcDbEntity
  8
0
  6
Continuous
 62
     2
100
AcDbCircle
 10
239.192640687
 20
123.982640687
 30
0.0
 40
1.0
100
AcDbArc
 50
180.0
 51
0.0
  0
LINE
  5
DB
330
1F
100
AcDbEntity
  8
0
  6
Continuous
 62
     2
100
AcDbLine
 10
240.192640687
 20
123.982640687
 30
0.0
 11
240.192640687
 21
137.582640687
 31
0.0
  0
LINE
  5
DC
330
1F
100
AcDbEntity
  8
0
  6
Continuous
 62
     2
100
AcDbLine
 10
240.192640687
 20
137.582640687
 30
0.0
 11
250.692640687
 21
137.582640687
 31
0.0
  0
LINE
  5
DD
330
1F
100
AcDbEntity
  8
0
  6
Continuous
 62
     2
100
AcDbLine
 10
250.692640687
 20
137.582640687
 30
0.0
 11
250.692640687
 21
123.982640687
 31
0.0
  0
ARC
  5
DE
330
1F
100
AcDbEntity
  8
0
  6
Continuous
 62
     2
100
AcDbCircle
 10
251.692640687
 20
123.982640687
 30
0.0
 40
1.0
100
AcDbArc
 50
180.0
 51
0.0
  0
LINE
  5
DF
330
1F
100
AcDbEntity
  8
0
  6
Continuous
 62
     2
100
AcDbLine
 10
252.692640687
 20
123.982640687
 30
0.0
 11
252.692640687
 21
137.582640687
 31
0.0
  0
LINE
  5
E0
330
1F
100
AcDbEntity
  8
0
  6
Continuous
 62
     2
100
AcDbLine
 10
252.692640687
 20
137.582640687
 30
0.0
 11
263.192640687
 21
137.582640687
 31
0.0
  0
LINE
  5
E1
330
1F
100
AcDbEntity
  8
0
  6
Continuous
 62
     2
100
AcDbLine
 10
263.192640687
 20
137.582640687
 30
0.0
 11
263.192640687
 21
123.982640687
 31
0.0
  0
ARC
  5
E2
330
1F
100
AcDbEntity
  8
0
  6
Continuous
 62
     2
100
AcDbCircle
 10
264.192640687
 20
123.982640687
 30
0.0
 40
1.0
100
AcDbArc
 50
180.0
 51
0.0
  0
LINE
  5
E3
330
1F
100
AcDbEntity
  8
0
  6
Continuous
 62
     2
100
AcDbLine
 10
265.192640687
 20
123.982640687
 30
0.0
 11
265.192640687
 21
137.582640687
 31
0.0
  0
LINE
  5
E4
330
1F
100
AcDbEntity
  8
0
  6
Continuous
 62
     2
100
AcDbLine
 10
265.192640687
 20
137.582640687
 30
0.0
 11
275.692640687
 21
137.582640687
 31
0.0
  0
LINE
  5
E5
330
1F
100
AcDbEntity
  8
0
  6
Continuous
 62
     2
100
AcDbLine
 10
275.692640687
 20
137.582640687
 30
0.0
 11
275.692640687
 21
123.982640687
 31
0.0
  0
ARC
  5
E6
330
1F
100
AcDbEntity
  8
0
  6
Continuous
 62
     2
100
AcDbCircle
 10
276.692640687
 20
123.982640687
 30
0.0
 40
1.0
100
AcDbArc
 50
180.0
 51
0.0
  0
LINE
  5
E7
330
1F
100
AcDbEntity
  8
0
  6
Continuous
 62
     2
100
AcDbLine
 10
277.692640687
 20
123.982640687
 30
0.0
 11
277.692640687
 21
137.582640687
 31
0.0
  0
LINE
  5
E8
330
1F
100
AcDbEntity
  8
0
  6
Continuous
 62
     2
100
AcDbLine
 10
277.692640687
 20
137.582640687
 30
0.0
 11
288.192640687
 21
137.582640687
 31
0.0
  0
LINE
  5
E9
330
1F
100
AcDbEntity
  8
0
  6
Continuous
 62
     2
100
AcDbLine
 10
288.192640687
 20
137.582640687
 30
0.0
 11
288.192640687
 21
123.982640687
 31
0.0
  0
ARC
  5
EA
330
1F
100
AcDbEntity
  8
0
  6
Continuous
 62
     2
100
AcDbCircle
 10
289.192640687
 20
123.982640687
 30
0.0
 40
1.0
100
AcDbArc
 50
180.0
 51
0.0
  0
LINE
  5
EB
330
1F
100
AcDbEntity
  8
0
  6
Continuous
 62
     2
100
AcDbLine
 10
290.192640687
 20
123.982640687
 30
0.0
 11
290.192640687
 21
137.582640687
 31
0.0
  0
LINE
  5
EC
330
1F
100
AcDbEntity
  8
0
  6
Continuous
 62
     2
100
AcDbLine
 10
290.192640687
 20
137.582640687
 30
0.0
 11
300.692640687
 21
137.582640687
 31
0.0
  0
LINE
  5
ED
330
1F
100
AcDbEntity
  8
0
  6
Continuous
 62
     2
100
AcDbLine
 10
300.692640687
 20
137.582640687
 30
0.0
 11
300.692640687
 21
123.982640687
 31
0.0
  0
ARC
  5
EE
330
1F
100
AcDbEntity
  8
0
  6
Continuous
 62
     2
100
AcDbCircle
 10
301.692640687
 20
123.982640687
 30
0.0
 40
1.0
100
AcDbArc
 50
180.0
 51
0.0
  0
LINE
  5
EF
330
1F
100
AcDbEntity
  8
0
  6
Continuous
 62
     2
100
AcDbLine
 10
302.692640687
 20
123.982640687
 30
0.0
 11
302.692640687
 21
137.582640687
 31
0.0
  0
LINE
  5
F0
330
1F
100
AcDbEntity
  8
0
  6
Continuous
 62
     2
100
AcDbLine
 10
302.692640687
 20
137.582640687
 30
0.0
 11
313.192640687
 21
137.582640687
 31
0.0
  0
LINE
  5
F1
330
1F
100
AcDbEntity
  8
0
  6
Continuous
 62
     2
100
AcDbLine
 10
313.192640687
 20
137.582640687
 30
0.0
 11
313.192640687
 21
123.982640687
 31
0.0
  0
ARC
  5
F2
330
1F
100
AcDbEntity
  8
0
  6
Continuous
 62
     2
100
AcDbCircle
 10
314.192640687
 20
123.982640687
 30
0.0
 40
1.0
100
AcDbArc
 50
180.0
 51
0.0
  0
LINE
  5
F3
330
1F
100
AcDbEntity
  8
0
  6
Continuous
 62
     2
100
AcDbLine
 10
315.192640687
 20
123.982640687
 30
0.0
 11
315.192640687
 21
137.582640687
 31
0.0
  0
LINE
  5
F4
330
1F
100
AcDbEntity
  8
0
  6
Continuous
 62
     2
100
AcDbLine
 10
315.192640687
 20
137.582640687
 30
0.0
 11
325.692640687
 21
137.582640687
 31
0.0
  0
LINE
  5
F5
330
1F
100
AcDbEntity
  8
0
  6
Continuous
 62
     2
100
AcDbLine
 10
325.692640687
 20
137.582640687
 30
0.0
 11
325.692640687
 21
123.982640687
 31
0.0
  0
ARC
  5
F6
330
1F
100
AcDbEntity
  8
0
  6
Continuous
 62
     2
100
AcDbCircle
 10
326.692640687
 20
123.982640687
 30
0.0
 40
1.0
100
AcDbArc
 50
180.0
 51
0.0
  0
LINE
  5
F7
330
1F
100
AcDbEntity
  8
0
  6
Continuous
 62
     2
100
AcDbLine
 10
327.692640687
 20
123.982640687
 30
0.0
 11
327.692640687
 21
137.582640687
 31
0.0
  0
LINE
  5
F8
330
1F
100
AcDbEntity
  8
0
  6
Continuous
 62
     2
100
AcDbLine
 10
327.692640687
 20
137.582640687
 30
0.0
 11
338.192640687
 21
137.582640687
 31
0.0
  0
LINE
  5
F9
330
1F
100
AcDbEntity
  8
0
  6
Continuous
 62
     2
100
AcDbLine
 10
338.192640687
 20
137.582640687
 30
0.0
 11
338.192640687
 21
123.982640687
 31
0.0
  0
ARC
  5
FA
330
1F
100
AcDbEntity
  8
0
  6
Continuous
 62
     2
100
AcDbCircle
 10
339.192640687
 20
123.982640687
 30
0.0
 40
1.0
100
AcDbArc
 50
180.0
 51
0.0
  0
LINE
  5
FB
330
1F
100
AcDbEntity
  8
0
  6
Continuous
 62
     2
100
AcDbLine
 10
340.192640687
 20
123.982640687
 30
0.0
 11
340.192640687
 21
137.582640687
 31
0.0
  0
LINE
  5
FC
330
1F
100
AcDbEntity
  8
0
  6
Continuous
 62
     2
100
AcDbLine
 10
340.192640687
 20
137.582640687
 30
0.0
 11
350.692640687
 21
137.582640687
 31
0.0
  0
LINE
  5
FD
330
1F
100
AcDbEntity
  8
0
  6
Continuous
 62
     2
100
AcDbLine
 10
350.692640687
 20
137.582640687
 30
0.0
 11
350.692640687
 21
123.982640687
 31
0.0
  0
ARC
  5
FE
330
1F
100
AcDbEntity
  8
0
  6
Continuous
 62
     2
100
AcDbCircle
 10
351.692640687
 20
123.982640687
 30
0.0
 40
1.0
100
AcDbArc
 50
180.0
 51
0.0
  0
LINE
  5
FF
330
1F
100
AcDbEntity
  8
0
  6
Continuous
 62
     2
100
AcDbLine
 10
352.692640687
 20
123.982640687
 30
0.0
 11
352.692640687
 21
137.582640687
 31
0.0
  0
LINE
  5
100
330
1F
100
AcDbEntity
  8
0
  6
Continuous
 62
     2
100
AcDbLine
 10
352.692640687
 20
137.582640687
 30
0.0
 11
363.192640687
 21
137.582640687
 31
0.0
  0
LINE
  5
101
330
1F
100
AcDbEntity
  8
0
  6
Continuous
 62
     2
100
AcDbLine
 10
363.192640687
 20
137.582640687
 30
0.0
 11
363.192640687
 21
123.982640687
 31
0.0
  0
ARC
  5
102
330
1F
100
AcDbEntity
  8
0
  6
Continuous
 62
     2
100
AcDbCircle
 10
364.192640687
 20
123.982640687
 30
0.0
 40
1.0
100
AcDbArc
 50
180.0
 51
0.0
  0
LINE
  5
103
330
1F
100
AcDbEntity
  8
0
  6
Continuous
 62
     2
100
AcDbLine
 10
365.192640687
 20
123.982640687
 30
0.0
 11
365.192640687
 21
137.582640687
 31
0.0
  0
LINE
  5
104
330
1F
100
AcDbEntity
  8
0
  6
Continuous
 62
     2
100
AcDbLine
 10
365.192640687
 20
137.582640687
 30
0.0
 11
375.692640687
 21
137.582640687
 31
0.0
  0
LINE
  5
105
330
1F
100
AcDbEntity
  8
0
  6
Continuous
 62
     2
100
AcDbLine
 10
200.942640687
 20
137.582640687
 30
0.0
 11
213.192640687
 21
137.582640687
 31
0.0
  0
LINE
  5
106
330
1F
100
AcDbEntity
  8
0
  6
Continuous
 62
     2
100
AcDbLine
 10
375.692640687
 20
137.582640687
 30
0.0
 11
375.692640687
 21
123.982640687
 31
0.0
  0
ARC
  5
107
330
1F
100
AcDbEntity
  8
0
  6
Continuous
 62
     2
100
AcDbCircle
 10
376.692640687
 20
123.982640687
 30
0.0
 40
1.0
100
AcDbArc
 50
180.0
 51
0.0
  0
LINE
  5
108
330
1F
100
AcDbEntity
  8
0
  6
Continuous
 62
     2
100
AcDbLine
 10
377.692640687
 20
123.982640687
 30
0.0
 11
377.692640687
 21
137.582640687
 31
0.0
  0
LINE
  5
109
330
1F
100
AcDbEntity
  8
0
  6
Continuous
 62
     2
100
AcDbLine
 10
389.942640687
 20
137.582640687
 30
0.0
 11
389.942640687
 21
123.982640687
 31
0.0
  0
ARC
  5
10A
330
1F
100
AcDbEntity
  8
0
  6
Continuous
 62
     2
100
AcDbCircle
 10
390.942640687
 20
123.982640687
 30
0.0
 40
1.0
100
AcDbArc
 50
180.0
 51
0.0
  0
LINE
  5
10B
330
1F
100
AcDbEntity
  8
0
  6
Continuous
 62
     2
100
AcDbLine
 10
391.942640687
 20
123.982640687
 30
0.0
 11
391.942640687
 21
137.582640687
 31
0.0
  0
LINE
  5
10C
330
1F
100
AcDbEntity
  8
0
  6
Continuous
 62
     2
100
AcDbLine
 10
391.942640687
 20
137.582640687
 30
0.0
 11
391.942640687
 21
142.982640687
 31
0.0
  0
LINE
  5
10D
330
1F
100
AcDbEntity
  8
0
  6
Continuous
 62
     2
100
AcDbLine
 10
389.942640687
 20
137.582640687
 30
0.0
 11
377.692640687
 21
137.582640687
 31
0.0
  0
CIRCLE
  5
10E
330
1F
100
AcDbEntity
  8
0
  6
Continuous
 62
     1
100
AcDbCircle
 10
382.942640687
 20
214.982640687
 30
0.0
 40
1.6
  0
ARC
  5
10F
330
1F
100
AcDbEntity
  8
0
  6
Continuous
 62
     1
100
AcDbCircle
 10
382.942640687
 20
214.982640687
 30
0.0
 40
2.0
100
AcDbArc
 50
60.0
 51
30.0
  0
LINE
  5
111
330
1F
100
AcDbEntity
  8
0
  6
LTYPE1
 62
     1
100
AcDbLine
 10
382.942640687
 20
219.982640687
 30
0.0
 11
382.942640687
 21
209.982640687
 31
0.0
  0
LINE
  5
112
330
1F
100
AcDbEntity
  8
0
  6
LTYPE1
 62
     1
100
AcDbLine
 10
377.942640687
 20
214.982640687
 30
0.0
 11
387.942640687
 21
214.982640687
 31
0.0
  0
CIRCLE
  5
113
330
1F
100
AcDbEntity
  8
0
  6
Continuous
 62
     1
100
AcDbCircle
 10
382.942640687
 20
154.982640687
 30
0.0
 40
1.6
  0
ARC
  5
114
330
1F
100
AcDbEntity
  8
0
  6
Continuous
 62
     1
100
AcDbCircle
 10
382.942640687
 20
154.982640687
 30
0.0
 40
2.0
100
AcDbArc
 50
60.0
 51
30.0
  0
LINE
  5
115
330
1F
100
AcDbEntity
  8
0
  6
LTYPE1
 62
     1
100
AcDbLine
 10
382.942640687
 20
159.982640687
 30
0.0
 11
382.942640687
 21
149.982640687
 31
0.0
  0
LINE
  5
116
330
1F
100
AcDbEntity
  8
0
  6
LTYPE1
 62
     1
100
AcDbLine
 10
377.942640687
 20
154.982640687
 30
0.0
 11
387.942640687
 21
154.982640687
 31
0.0
  0
CIRCLE
  5
117
330
1F
100
AcDbEntity
  8
0
  6
Continuous
 62
     1
100
AcDbCircle
 10
217.942640687
 20
154.982640687
 30
0.0
 40
1.6
  0
ARC
  5
118
330
1F
100
AcDbEntity
  8
0
  6
Continuous
 62
     1
100
AcDbCircle
 10
217.942640687
 20
154.982640687
 30
0.0
 40
2.0
100
AcDbArc
 50
60.0
 51
30.0
  0
LINE
  5
119
330
1F
100
AcDbEntity
  8
0
  6
LTYPE1
 62
     1
100
AcDbLine
 10
217.942640687
 20
159.982640687
 30
0.0
 11
217.942640687
 21
149.982640687
 31
0.0
  0
LINE
  5
11A
330
1F
100
AcDbEntity
  8
0
  6
LTYPE1
 62
     1
100
AcDbLine
 10
212.942640687
 20
154.982640687
 30
0.0
 11
222.942640687
 21
154.982640687
 31
0.0
  0
CIRCLE
  5
11B
330
1F
100
AcDbEntity
  8
0
  6
Continuous
 62
     1
100
AcDbCircle
 10
217.942640687
 20
214.982640687
 30
0.0
 40
1.6
  0
ARC
  5
11C
330
1F
100
AcDbEntity
  8
0
  6
Continuous
 62
     1
100
AcDbCircle
 10
217.942640687
 20
214.982640687
 30
0.0
 40
2.0
100
AcDbArc
 50
60.0
 51
30.0
  0
LINE
  5
11D
330
1F
100
AcDbEntity
  8
0
  6
LTYPE1
 62
     1
100
AcDbLine
 10
217.942640687
 20
219.982640687
 30
0.0
 11
217.942640687
 21
209.982640687
 31
0.0
  0
LINE
  5
11E
330
1F
100
AcDbEntity
  8
0
  6
LTYPE1
 62
     1
100
AcDbLine
 10
212.942640687
 20
214.982640687
 30
0.0
 11
222.942640687
 21
214.982640687
 31
0.0
  0
LINE
  5
11F
330
1F
100
AcDbEntity
  8
0
  6
Continuous
 62
     2
100
AcDbLine
 10
197.942640687
 20
398.732640687
 30
0.0
 11
197.942640687
 21
290.732640687
 31
0.0
  0
LINE
  5
120
330
1F
100
AcDbEntity
  8
0
  6
Continuous
 62
     2
100
AcDbLine
 10
197.942640687
 20
290.732640687
 30
0.0
 11
402.942640687
 21
290.732640687
 31
0.0
  0
POINT
  5
121
330
1F
100
AcDbEntity
  8
0
  6
Continuous
 62
     2
100
AcDbPoint
 10
402.942640687
 20
290.732640687
 30
0.0
  0
LINE
  5
122
330
1F
100
AcDbEntity
  8
0
  6
Continuous
 62
     2
100
AcDbLine
 10
402.942640687
 20
290.732640687
 30
0.0
 11
402.942640687
 21
291.732640687
 31
0.0
  0
LINE
  5
123
330
1F
100
AcDbEntity
  8
0
  6
Continuous
 62
     2
100
AcDbLine
 10
402.942640687
 20
291.732640687
 30
0.0
 11
197.942640687
 21
291.732640687
 31
0.0
  0
LINE
  5
124
330
1F
100
AcDbEntity
  8
0
  6
Continuous
 62
     2
100
AcDbLine
 10
197.942640687
 20
291.732640687
 30
0.0
 11
402.942640687
 21
291.732640687
 31
0.0
  0
LINE
  5
125
330
1F
100
AcDbEntity
  8
0
  6
Continuous
 62
     2
100
AcDbLine
 10
402.942640687
 20
291.732640687
 30
0.0
 11
402.942640687
 21
398.732640687
 31
0.0
  0
LINE
  5
126
330
1F
100
AcDbEntity
  8
0
  6
Continuous
 62
     2
100
AcDbLine
 10
402.942640687
 20
398.732640687
 30
0.0
 11
197.942640687
 21
398.732640687
 31
0.0
  0
LINE
  5
127
330
1F
100
AcDbEntity
  8
0
  6
Continuous
 62
     1
100
AcDbLine
 10
214.192640687
 20
332.232640687
 30
0.0
 11
214.192640687
 21
307.232640687
 31
0.0
  0
LINE
  5
128
330
1F
100
AcDbEntity
  8
0
  6
Continuous
 62
     1
100
AcDbLine
 10
214.192640687
 20
307.232640687
 30
0.0
 11
216.692640687
 21
307.232640687
 31
0.0
  0
LINE
  5
129
330
1F
100
AcDbEntity
  8
0
  6
Continuous
 62
     1
100
AcDbLine
 10
216.692640687
 20
307.232640687
 30
0.0
 11
216.692640687
 21
332.232640687
 31
0.0
  0
LINE
  5
12A
330
1F
100
AcDbEntity
  8
0
  6
Continuous
 62
     1
100
AcDbLine
 10
216.692640687
 20
332.232640687
 30
0.0
 11
214.192640687
 21
332.232640687
 31
0.0
  0
LINE
  5
12B
330
1F
100
AcDbEntity
  8
0
  6
Continuous
 62
     1
100
AcDbLine
 10
219.192640687
 20
332.232640687
 30
0.0
 11
219.192640687
 21
307.232640687
 31
0.0
  0
LINE
  5
12C
330
1F
100
AcDbEntity
  8
0
  6
Continuous
 62
     1
100
AcDbLine
 10
219.192640687
 20
307.232640687
 30
0.0
 11
221.692640687
 21
307.232640687
 31
0.0
  0
LINE
  5
12D
330
1F
100
AcDbEntity
  8
0
  6
Continuous
 62
     1
100
AcDbLine
 10
221.692640687
 20
307.232640687
 30
0.0
 11
221.692640687
 21
332.232640687
 31
0.0
  0
LINE
  5
12E
330
1F
100
AcDbEntity
  8
0
  6
Continuous
 62
     1
100
AcDbLine
 10
221.692640687
 20
332.232640687
 30
0.0
 11
219.192640687
 21
332.232640687
 31
0.0
  0
LINE
  5
12F
330
1F
100
AcDbEntity
  8
0
  6
Continuous
 62
     1
100
AcDbLine
 10
224.192640687
 20
332.232640687
 30
0.0
 11
224.192640687
 21
307.232640687
 31
0.0
  0
LINE
  5
130
330
1F
100
AcDbEntity
  8
0
  6
Continuous
 62
     1
100
AcDbLine
 10
224.192640687
 20
307.232640687
 30
0.0
 11
226.692640687
 21
307.232640687
 31
0.0
  0
LINE
  5
131
330
1F
100
AcDbEntity
  8
0
  6
Continuous
 62
     1
100
AcDbLine
 10
226.692640687
 20
307.232640687
 30
0.0
 11
226.692640687
 21
332.232640687
 31
0.0
  0
LINE
  5
132
330
1F
100
AcDbEntity
  8
0
  6
Continuous
 62
     1
100
AcDbLine
 10
226.692640687
 20
332.232640687
 30
0.0
 11
224.192640687
 21
332.232640687
 31
0.0
  0
LINE
  5
133
330
1F
100
AcDbEntity
  8
0
  6
Continuous
 62
     1
100
AcDbLine
 10
229.192640687
 20
332.232640687
 30
0.0
 11
229.192640687
 21
307.232640687
 31
0.0
  0
LINE
  5
134
330
1F
100
AcDbEntity
  8
0
  6
Continuous
 62
     1
100
AcDbLine
 10
229.192640687
 20
307.232640687
 30
0.0
 11
231.692640687
 21
307.232640687
 31
0.0
  0
LINE
  5
135
330
1F
100
AcDbEntity
  8
0
  6
Continuous
 62
     1
100
AcDbLine
 10
231.692640687
 20
307.232640687
 30
0.0
 11
231.692640687
 21
332.232640687
 31
0.0
  0
LINE
  5
136
330
1F
100
AcDbEntity
  8
0
  6
Continuous
 62
     1
100
AcDbLine
 10
231.692640687
 20
332.232640687
 30
0.0
 11
229.192640687
 21
332.232640687
 31
0.0
  0
LINE
  5
137
330
1F
100
AcDbEntity
  8
0
  6
Continuous
 62
     1
100
AcDbLine
 10
234.192640687
 20
332.232640687
 30
0.0
 11
234.192640687
 21
307.232640687
 31
0.0
  0
LINE
  5
138
330
1F
100
AcDbEntity
  8
0
  6
Continuous
 62
     1
100
AcDbLine
 10
234.192640687
 20
307.232640687
 30
0.0
 11
236.692640687
 21
307.232640687
 31
0.0
  0
LINE
  5
139
330
1F
100
AcDbEntity
  8
0
  6
Continuous
 62
     1
100
AcDbLine
 10
236.692640687
 20
307.232640687
 30
0.0
 11
236.692640687
 21
332.232640687
 31
0.0
  0
LINE
  5
13A
330
1F
100
AcDbEntity
  8
0
  6
Continuous
 62
     1
100
AcDbLine
 10
236.692640687
 20
332.232640687
 30
0.0
 11
234.192640687
 21
332.232640687
 31
0.0
  0
LINE
  5
13B
330
1F
100
AcDbEntity
  8
0
  6
Continuous
 62
     1
100
AcDbLine
 10
239.192640687
 20
332.232640687
 30
0.0
 11
239.192640687
 21
307.232640687
 31
0.0
  0
LINE
  5
13C
330
1F
100
AcDbEntity
  8
0
  6
Continuous
 62
     1
100
AcDbLine
 10
239.192640687
 20
307.232640687
 30
0.0
 11
241.692640687
 21
307.232640687
 31
0.0
  0
LINE
  5
13D
330
1F
100
AcDbEntity
  8
0
  6
Continuous
 62
     1
100
AcDbLine
 10
241.692640687
 20
307.232640687
 30
0.0
 11
241.692640687
 21
332.232640687
 31
0.0
  0
LINE
  5
13E
330
1F
100
AcDbEntity
  8
0
  6
Continuous
 62
     1
100
AcDbLine
 10
241.692640687
 20
332.232640687
 30
0.0
 11
239.192640687
 21
332.232640687
 31
0.0
  0
LINE
  5
13F
330
1F
100
AcDbEntity
  8
0
  6
Continuous
 62
     1
100
AcDbLine
 10
244.192640687
 20
332.232640687
 30
0.0
 11
244.192640687
 21
307.232640687
 31
0.0
  0
LINE
  5
140
330
1F
100
AcDbEntity
  8
0
  6
Continuous
 62
     1
100
AcDbLine
 10
244.192640687
 20
307.232640687
 30
0.0
 11
246.692640687
 21
307.232640687
 31
0.0
  0
LINE
  5
141
330
1F
100
AcDbEntity
  8
0
  6
Continuous
 62
     1
100
AcDbLine
 10
246.692640687
 20
307.232640687
 30
0.0
 11
246.692640687
 21
332.232640687
 31
0.0
  0
LINE
  5
142
330
1F
100
AcDbEntity
  8
0
  6
Continuous
 62
     1
100
AcDbLine
 10
246.692640687
 20
332.232640687
 30
0.0
 11
244.192640687
 21
332.232640687
 31
0.0
  0
LINE
  5
143
330
1F
100
AcDbEntity
  8
0
  6
Continuous
 62
     1
100
AcDbLine
 10
249.192640687
 20
332.232640687
 30
0.0
 11
249.192640687
 21
307.232640687
 31
0.0
  0
LINE
  5
144
330
1F
100
AcDbEntity
  8
0
  6
Continuous
 62
     1
100
AcDbLine
 10
249.192640687
 20
307.232640687
 30
0.0
 11
251.692640687
 21
307.232640687
 31
0.0
  0
LINE
  5
145
330
1F
100
AcDbEntity
  8
0
  6
Continuous
 62
     1
100
AcDbLine
 10
251.692640687
 20
307.232640687
 30
0.0
 11
251.692640687
 21
332.232640687
 31
0.0
  0
LINE
  5
146
330
1F
100
AcDbEntity
  8
0
  6
Continuous
 62
     1
100
AcDbLine
 10
251.692640687
 20
332.232640687
 30
0.0
 11
249.192640687
 21
332.232640687
 31
0.0
  0
LINE
  5
147
330
1F
100
AcDbEntity
  8
0
  6
Continuous
 62
     1
100
AcDbLine
 10
254.192640687
 20
332.232640687
 30
0.0
 11
254.192640687
 21
307.232640687
 31
0.0
  0
LINE
  5
148
330
1F
100
AcDbEntity
  8
0
  6
Continuous
 62
     1
100
AcDbLine
 10
254.192640687
 20
307.232640687
 30
0.0
 11
256.692640687
 21
307.232640687
 31
0.0
  0
LINE
  5
149
330
1F
100
AcDbEntity
  8
0
  6
Continuous
 62
     1
100
AcDbLine
 10
256.692640687
 20
307.232640687
 30
0.0
 11
256.692640687
 21
332.232640687
 31
0.0
  0
LINE
  5
14A
330
1F
100
AcDbEntity
  8
0
  6
Continuous
 62
     1
100
AcDbLine
 10
256.692640687
 20
332.232640687
 30
0.0
 11
254.192640687
 21
332.232640687
 31
0.0
  0
LINE
  5
14B
330
1F
100
AcDbEntity
  8
0
  6
Continuous
 62
     1
100
AcDbLine
 10
259.192640687
 20
332.232640687
 30
0.0
 11
259.192640687
 21
307.232640687
 31
0.0
  0
LINE
  5
14C
330
1F
100
AcDbEntity
  8
0
  6
Continuous
 62
     1
100
AcDbLine
 10
259.192640687
 20
307.232640687
 30
0.0
 11
261.692640687
 21
307.232640687
 31
0.0
  0
LINE
  5
14D
330
1F
100
AcDbEntity
  8
0
  6
Continuous
 62
     1
100
AcDbLine
 10
261.692640687
 20
307.232640687
 30
0.0
 11
261.692640687
 21
332.232640687
 31
0.0
  0
LINE
  5
14E
330
1F
100
AcDbEntity
  8
0
  6
Continuous
 62
     1
100
AcDbLine
 10
261.692640687
 20
332.232640687
 30
0.0
 11
259.192640687
 21
332.232640687
 31
0.0
  0
LINE
  5
14F
330
1F
100
AcDbEntity
  8
0
  6
Continuous
 62
     1
100
AcDbLine
 10
264.192640687
 20
332.232640687
 30
0.0
 11
264.192640687
 21
307.232640687
 31
0.0
  0
LINE
  5
150
330
1F
100
AcDbEntity
  8
0
  6
Continuous
 62
     1
100
AcDbLine
 10
264.192640687
 20
307.232640687
 30
0.0
 11
266.692640687
 21
307.232640687
 31
0.0
  0
LINE
  5
151
330
1F
100
AcDbEntity
  8
0
  6
Continuous
 62
     1
100
AcDbLine
 10
266.692640687
 20
307.232640687
 30
0.0
 11
266.692640687
 21
332.232640687
 31
0.0
  0
LINE
  5
152
330
1F
100
AcDbEntity
  8
0
  6
Continuous
 62
     1
100
AcDbLine
 10
266.692640687
 20
332.232640687
 30
0.0
 11
264.192640687
 21
332.232640687
 31
0.0
  0
LINE
  5
153
330
1F
100
AcDbEntity
  8
0
  6
Continuous
 62
     1
100
AcDbLine
 10
269.192640687
 20
332.232640687
 30
0.0
 11
269.192640687
 21
307.232640687
 31
0.0
  0
LINE
  5
154
330
1F
100
AcDbEntity
  8
0
  6
Continuous
 62
     1
100
AcDbLine
 10
269.192640687
 20
307.232640687
 30
0.0
 11
271.692640687
 21
307.232640687
 31
0.0
  0
LINE
  5
155
330
1F
100
AcDbEntity
  8
0
  6
Continuous
 62
     1
100
AcDbLine
 10
271.692640687
 20
307.232640687
 30
0.0
 11
271.692640687
 21
332.232640687
 31
0.0
  0
LINE
  5
156
330
1F
100
AcDbEntity
  8
0
  6
Continuous
 62
     1
100
AcDbLine
 10
271.692640687
 20
332.232640687
 30
0.0
 11
269.192640687
 21
332.232640687
 31
0.0
  0
LINE
  5
157
330
1F
100
AcDbEntity
  8
0
  6
Continuous
 62
     1
100
AcDbLine
 10
274.192640687
 20
332.232640687
 30
0.0
 11
274.192640687
 21
307.232640687
 31
0.0
  0
LINE
  5
158
330
1F
100
AcDbEntity
  8
0
  6
Continuous
 62
     1
100
AcDbLine
 10
274.192640687
 20
307.232640687
 30
0.0
 11
276.692640687
 21
307.232640687
 31
0.0
  0
LINE
  5
159
330
1F
100
AcDbEntity
  8
0
  6
Continuous
 62
     1
100
AcDbLine
 10
276.692640687
 20
307.232640687
 30
0.0
 11
276.692640687
 21
332.232640687
 31
0.0
  0
LINE
  5
15A
330
1F
100
AcDbEntity
  8
0
  6
Continuous
 62
     1
100
AcDbLine
 10
276.692640687
 20
332.232640687
 30
0.0
 11
274.192640687
 21
332.232640687
 31
0.0
  0
LINE
  5
15B
330
1F
100
AcDbEntity
  8
0
  6
Continuous
 62
     1
100
AcDbLine
 10
279.192640687
 20
332.232640687
 30
0.0
 11
279.192640687
 21
307.232640687
 31
0.0
  0
LINE
  5
15C
330
1F
100
AcDbEntity
  8
0
  6
Continuous
 62
     1
100
AcDbLine
 10
279.192640687
 20
307.232640687
 30
0.0
 11
281.692640687
 21
307.232640687
 31
0.0
  0
LINE
  5
15D
330
1F
100
AcDbEntity
  8
0
  6
Continuous
 62
     1
100
AcDbLine
 10
281.692640687
 20
307.232640687
 30
0.0
 11
281.692640687
 21
332.232640687
 31
0.0
  0
LINE
  5
15E
330
1F
100
AcDbEntity
  8
0
  6
Continuous
 62
     1
100
AcDbLine
 10
281.692640687
 20
332.232640687
 30
0.0
 11
279.192640687
 21
332.232640687
 31
0.0
  0
LINE
  5
15F
330
1F
100
AcDbEntity
  8
0
  6
Continuous
 62
     1
100
AcDbLine
 10
284.192640687
 20
332.232640687
 30
0.0
 11
284.192640687
 21
307.232640687
 31
0.0
  0
LINE
  5
160
330
1F
100
AcDbEntity
  8
0
  6
Continuous
 62
     1
100
AcDbLine
 10
284.192640687
 20
307.232640687
 30
0.0
 11
286.692640687
 21
307.232640687
 31
0.0
  0
LINE
  5
161
330
1F
100
AcDbEntity
  8
0
  6
Continuous
 62
     1
100
AcDbLine
 10
286.692640687
 20
307.232640687
 30
0.0
 11
286.692640687
 21
332.232640687
 31
0.0
  0
LINE
  5
162
330
1F
100
AcDbEntity
  8
0
  6
Continuous
 62
     1
100
AcDbLine
 10
286.692640687
 20
332.232640687
 30
0.0
 11
284.192640687
 21
332.232640687
 31
0.0
  0
LINE
  5
163
330
1F
100
AcDbEntity
  8
0
  6
Continuous
 62
     1
100
AcDbLine
 10
289.192640687
 20
332.232640687
 30
0.0
 11
289.192640687
 21
307.232640687
 31
0.0
  0
LINE
  5
164
330
1F
100
AcDbEntity
  8
0
  6
Continuous
 62
     1
100
AcDbLine
 10
289.192640687
 20
307.232640687
 30
0.0
 11
291.692640687
 21
307.232640687
 31
0.0
  0
LINE
  5
165
330
1F
100
AcDbEntity
  8
0
  6
Continuous
 62
     1
100
AcDbLine
 10
291.692640687
 20
307.232640687
 30
0.0
 11
291.692640687
 21
332.232640687
 31
0.0
  0
LINE
  5
166
330
1F
100
AcDbEntity
  8
0
  6
Continuous
 62
     1
100
AcDbLine
 10
291.692640687
 20
332.232640687
 30
0.0
 11
289.192640687
 21
332.232640687
 31
0.0
  0
LINE
  5
167
330
1F
100
AcDbEntity
  8
0
  6
Continuous
 62
     1
100
AcDbLine
 10
294.192640687
 20
332.232640687
 30
0.0
 11
294.192640687
 21
307.232640687
 31
0.0
  0
LINE
  5
168
330
1F
100
AcDbEntity
  8
0
  6
Continuous
 62
     1
100
AcDbLine
 10
294.192640687
 20
307.232640687
 30
0.0
 11
296.692640687
 21
307.232640687
 31
0.0
  0
LINE
  5
169
330
1F
100
AcDbEntity
  8
0
  6
Continuous
 62
     1
100
AcDbLine
 10
296.692640687
 20
307.232640687
 30
0.0
 11
296.692640687
 21
332.232640687
 31
0.0
  0
LINE
  5
16A
330
1F
100
AcDbEntity
  8
0
  6
Continuous
 62
     1
100
AcDbLine
 10
296.692640687
 20
332.232640687
 30
0.0
 11
294.192640687
 21
332.232640687
 31
0.0
  0
LINE
  5
16B
330
1F
100
AcDbEntity
  8
0
  6
Continuous
 62
     1
100
AcDbLine
 10
299.192640687
 20
332.232640687
 30
0.0
 11
299.192640687
 21
307.232640687
 31
0.0
  0
LINE
  5
16C
330
1F
100
AcDbEntity
  8
0
  6
Continuous
 62
     1
100
AcDbLine
 10
299.192640687
 20
307.232640687
 30
0.0
 11
301.692640687
 21
307.232640687
 31
0.0
  0
LINE
  5
16D
330
1F
100
AcDbEntity
  8
0
  6
Continuous
 62
     1
100
AcDbLine
 10
301.692640687
 20
307.232640687
 30
0.0
 11
301.692640687
 21
332.232640687
 31
0.0
  0
LINE
  5
16E
330
1F
100
AcDbEntity
  8
0
  6
Continuous
 62
     1
100
AcDbLine
 10
301.692640687
 20
332.232640687
 30
0.0
 11
299.192640687
 21
332.232640687
 31
0.0
  0
LINE
  5
16F
330
1F
100
AcDbEntity
  8
0
  6
Continuous
 62
     1
100
AcDbLine
 10
304.192640687
 20
332.232640687
 30
0.0
 11
304.192640687
 21
307.232640687
 31
0.0
  0
LINE
  5
170
330
1F
100
AcDbEntity
  8
0
  6
Continuous
 62
     1
100
AcDbLine
 10
304.192640687
 20
307.232640687
 30
0.0
 11
306.692640687
 21
307.232640687
 31
0.0
  0
LINE
  5
171
330
1F
100
AcDbEntity
  8
0
  6
Continuous
 62
     1
100
AcDbLine
 10
306.692640687
 20
307.232640687
 30
0.0
 11
306.692640687
 21
332.232640687
 31
0.0
  0
LINE
  5
172
330
1F
100
AcDbEntity
  8
0
  6
Continuous
 62
     1
100
AcDbLine
 10
306.692640687
 20
332.232640687
 30
0.0
 11
304.192640687
 21
332.232640687
 31
0.0
  0
LINE
  5
173
330
1F
100
AcDbEntity
  8
0
  6
Continuous
 62
     1
100
AcDbLine
 10
309.192640687
 20
332.232640687
 30
0.0
 11
309.192640687
 21
307.232640687
 31
0.0
  0
LINE
  5
174
330
1F
100
AcDbEntity
  8
0
  6
Continuous
 62
     1
100
AcDbLine
 10
309.192640687
 20
307.232640687
 30
0.0
 11
311.692640687
 21
307.232640687
 31
0.0
  0
LINE
  5
175
330
1F
100
AcDbEntity
  8
0
  6
Continuous
 62
     1
100
AcDbLine
 10
311.692640687
 20
307.232640687
 30
0.0
 11
311.692640687
 21
332.232640687
 31
0.0
  0
LINE
  5
176
330
1F
100
AcDbEntity
  8
0
  6
Continuous
 62
     1
100
AcDbLine
 10
311.692640687
 20
332.232640687
 30
0.0
 11
309.192640687
 21
332.232640687
 31
0.0
  0
LINE
  5
177
330
1F
100
AcDbEntity
  8
0
  6
Continuous
 62
     1
100
AcDbLine
 10
314.192640687
 20
332.232640687
 30
0.0
 11
314.192640687
 21
307.232640687
 31
0.0
  0
LINE
  5
178
330
1F
100
AcDbEntity
  8
0
  6
Continuous
 62
     1
100
AcDbLine
 10
314.192640687
 20
307.232640687
 30
0.0
 11
316.692640687
 21
307.232640687
 31
0.0
  0
LINE
  5
179
330
1F
100
AcDbEntity
  8
0
  6
Continuous
 62
     1
100
AcDbLine
 10
316.692640687
 20
307.232640687
 30
0.0
 11
316.692640687
 21
332.232640687
 31
0.0
  0
LINE
  5
17A
330
1F
100
AcDbEntity
  8
0
  6
Continuous
 62
     1
100
AcDbLine
 10
316.692640687
 20
332.232640687
 30
0.0
 11
314.192640687
 21
332.232640687
 31
0.0
  0
LINE
  5
17B
330
1F
100
AcDbEntity
  8
0
  6
Continuous
 62
     1
100
AcDbLine
 10
319.192640687
 20
332.232640687
 30
0.0
 11
319.192640687
 21
307.232640687
 31
0.0
  0
LINE
  5
17C
330
1F
100
AcDbEntity
  8
0
  6
Continuous
 62
     1
100
AcDbLine
 10
319.192640687
 20
307.232640687
 30
0.0
 11
321.692640687
 21
307.232640687
 31
0.0
  0
LINE
  5
17D
330
1F
100
AcDbEntity
  8
0
  6
Continuous
 62
     1
100
AcDbLine
 10
321.692640687
 20
307.232640687
 30
0.0
 11
321.692640687
 21
332.232640687
 31
0.0
  0
LINE
  5
17E
330
1F
100
AcDbEntity
  8
0
  6
Continuous
 62
     1
100
AcDbLine
 10
321.692640687
 20
332.232640687
 30
0.0
 11
319.192640687
 21
332.232640687
 31
0.0
  0
LINE
  5
17F
330
1F
100
AcDbEntity
  8
0
  6
Continuous
 62
     1
100
AcDbLine
 10
324.192640687
 20
332.232640687
 30
0.0
 11
324.192640687
 21
307.232640687
 31
0.0
  0
LINE
  5
180
330
1F
100
AcDbEntity
  8
0
  6
Continuous
 62
     1
100
AcDbLine
 10
324.192640687
 20
307.232640687
 30
0.0
 11
326.692640687
 21
307.232640687
 31
0.0
  0
LINE
  5
181
330
1F
100
AcDbEntity
  8
0
  6
Continuous
 62
     1
100
AcDbLine
 10
326.692640687
 20
307.232640687
 30
0.0
 11
326.692640687
 21
332.232640687
 31
0.0
  0
LINE
  5
182
330
1F
100
AcDbEntity
  8
0
  6
Continuous
 62
     1
100
AcDbLine
 10
326.692640687
 20
332.232640687
 30
0.0
 11
324.192640687
 21
332.232640687
 31
0.0
  0
LINE
  5
183
330
1F
100
AcDbEntity
  8
0
  6
Continuous
 62
     1
100
AcDbLine
 10
329.192640687
 20
332.232640687
 30
0.0
 11
329.192640687
 21
307.232640687
 31
0.0
  0
LINE
  5
184
330
1F
100
AcDbEntity
  8
0
  6
Continuous
 62
     1
100
AcDbLine
 10
329.192640687
 20
307.232640687
 30
0.0
 11
331.692640687
 21
307.232640687
 31
0.0
  0
LINE
  5
185
330
1F
100
AcDbEntity
  8
0
  6
Continuous
 62
     1
100
AcDbLine
 10
331.692640687
 20
307.232640687
 30
0.0
 11
331.692640687
 21
332.232640687
 31
0.0
  0
LINE
  5
186
330
1F
100
AcDbEntity
  8
0
  6
Continuous
 62
     1
100
AcDbLine
 10
331.692640687
 20
332.232640687
 30
0.0
 11
329.192640687
 21
332.232640687
 31
0.0
  0
LINE
  5
187
330
1F
100
AcDbEntity
  8
0
  6
Continuous
 62
     1
100
AcDbLine
 10
334.192640687
 20
332.232640687
 30
0.0
 11
334.192640687
 21
307.232640687
 31
0.0
  0
LINE
  5
188
330
1F
100
AcDbEntity
  8
0
  6
Continuous
 62
     1
100
AcDbLine
 10
334.192640687
 20
307.232640687
 30
0.0
 11
336.692640687
 21
307.232640687
 31
0.0
  0
LINE
  5
189
330
1F
100
AcDbEntity
  8
0
  6
Continuous
 62
     1
100
AcDbLine
 10
336.692640687
 20
307.232640687
 30
0.0
 11
336.692640687
 21
332.232640687
 31
0.0
  0
LINE
  5
18A
330
1F
100
AcDbEntity
  8
0
  6
Continuous
 62
     1
100
AcDbLine
 10
336.692640687
 20
332.232640687
 30
0.0
 11
334.192640687
 21
332.232640687
 31
0.0
  0
LINE
  5
18B
330
1F
100
AcDbEntity
  8
0
  6
Continuous
 62
     1
100
AcDbLine
 10
339.192640687
 20
332.232640687
 30
0.0
 11
339.192640687
 21
307.232640687
 31
0.0
  0
LINE
  5
18C
330
1F
100
AcDbEntity
  8
0
  6
Continuous
 62
     1
100
AcDbLine
 10
339.192640687
 20
307.232640687
 30
0.0
 11
341.692640687
 21
307.232640687
 31
0.0
  0
LINE
  5
18D
330
1F
100
AcDbEntity
  8
0
  6
Continuous
 62
     1
100
AcDbLine
 10
341.692640687
 20
307.232640687
 30
0.0
 11
341.692640687
 21
332.232640687
 31
0.0
  0
LINE
  5
18E
330
1F
100
AcDbEntity
  8
0
  6
Continuous
 62
     1
100
AcDbLine
 10
341.692640687
 20
332.232640687
 30
0.0
 11
339.192640687
 21
332.232640687
 31
0.0
  0
LINE
  5
18F
330
1F
100
AcDbEntity
  8
0
  6
Continuous
 62
     1
100
AcDbLine
 10
344.192640687
 20
332.232640687
 30
0.0
 11
344.192640687
 21
307.232640687
 31
0.0
  0
LINE
  5
190
330
1F
100
AcDbEntity
  8
0
  6
Continuous
 62
     1
100
AcDbLine
 10
344.192640687
 20
307.232640687
 30
0.0
 11
346.692640687
 21
307.232640687
 31
0.0
  0
LINE
  5
191
330
1F
100
AcDbEntity
  8
0
  6
Continuous
 62
     1
100
AcDbLine
 10
346.692640687
 20
307.232640687
 30
0.0
 11
346.692640687
 21
332.232640687
 31
0.0
  0
LINE
  5
192
330
1F
100
AcDbEntity
  8
0
  6
Continuous
 62
     1
100
AcDbLine
 10
346.692640687
 20
332.232640687
 30
0.0
 11
344.192640687
 21
332.232640687
 31
0.0
  0
LINE
  5
193
330
1F
100
AcDbEntity
  8
0
  6
Continuous
 62
     1
100
AcDbLine
 10
349.192640687
 20
332.232640687
 30
0.0
 11
349.192640687
 21
307.232640687
 31
0.0
  0
LINE
  5
194
330
1F
100
AcDbEntity
  8
0
  6
Continuous
 62
     1
100
AcDbLine
 10
349.192640687
 20
307.232640687
 30
0.0
 11
351.692640687
 21
307.232640687
 31
0.0
  0
LINE
  5
195
330
1F
100
AcDbEntity
  8
0
  6
Continuous
 62
     1
100
AcDbLine
 10
351.692640687
 20
307.232640687
 30
0.0
 11
351.692640687
 21
332.232640687
 31
0.0
  0
LINE
  5
196
330
1F
100
AcDbEntity
  8
0
  6
Continuous
 62
     1
100
AcDbLine
 10
351.692640687
 20
332.232640687
 30
0.0
 11
349.192640687
 21
332.232640687
 31
0.0
  0
LINE
  5
197
330
1F
100
AcDbEntity
  8
0
  6
Continuous
 62
     1
100
AcDbLine
 10
354.192640687
 20
332.232640687
 30
0.0
 11
354.192640687
 21
307.232640687
 31
0.0
  0
LINE
  5
198
330
1F
100
AcDbEntity
  8
0
  6
Continuous
 62
     1
100
AcDbLine
 10
354.192640687
 20
307.232640687
 30
0.0
 11
356.692640687
 21
307.232640687
 31
0.0
  0
LINE
  5
199
330
1F
100
AcDbEntity
  8
0
  6
Continuous
 62
     1
100
AcDbLine
 10
356.692640687
 20
307.232640687
 30
0.0
 11
356.692640687
 21
332.232640687
 31
0.0
  0
LINE
  5
19A
330
1F
100
AcDbEntity
  8
0
  6
Continuous
 62
     1
100
AcDbLine
 10
356.692640687
 20
332.232640687
 30
0.0
 11
354.192640687
 21
332.232640687
 31
0.0
  0
LINE
  5
19B
330
1F
100
AcDbEntity
  8
0
  6
Continuous
 62
     1
100
AcDbLine
 10
359.192640687
 20
332.232640687
 30
0.0
 11
359.192640687
 21
307.232640687
 31
0.0
  0
LINE
  5
19C
330
1F
100
AcDbEntity
  8
0
  6
Continuous
 62
     1
100
AcDbLine
 10
359.192640687
 20
307.232640687
 30
0.0
 11
361.692640687
 21
307.232640687
 31
0.0
  0
LINE
  5
19D
330
1F
100
AcDbEntity
  8
0
  6
Continuous
 62
     1
100
AcDbLine
 10
361.692640687
 20
307.232640687
 30
0.0
 11
361.692640687
 21
332.232640687
 31
0.0
  0
LINE
  5
19E
330
1F
100
AcDbEntity
  8
0
  6
Continuous
 62
     1
100
AcDbLine
 10
361.692640687
 20
332.232640687
 30
0.0
 11
359.192640687
 21
332.232640687
 31
0.0
  0
LINE
  5
19F
330
1F
100
AcDbEntity
  8
0
  6
Continuous
 62
     1
100
AcDbLine
 10
364.192640687
 20
332.232640687
 30
0.0
 11
364.192640687
 21
307.232640687
 31
0.0
  0
LINE
  5
1A0
330
1F
100
AcDbEntity
  8
0
  6
Continuous
 62
     1
100
AcDbLine
 10
364.192640687
 20
307.232640687
 30
0.0
 11
366.692640687
 21
307.232640687
 31
0.0
  0
LINE
  5
1A1
330
1F
100
AcDbEntity
  8
0
  6
Continuous
 62
     1
100
AcDbLine
 10
366.692640687
 20
307.232640687
 30
0.0
 11
366.692640687
 21
332.232640687
 31
0.0
  0
LINE
  5
1A2
330
1F
100
AcDbEntity
  8
0
  6
Continuous
 62
     1
100
AcDbLine
 10
366.692640687
 20
332.232640687
 30
0.0
 11
364.192640687
 21
332.232640687
 31
0.0
  0
LINE
  5
1A3
330
1F
100
AcDbEntity
  8
0
  6
Continuous
 62
     1
100
AcDbLine
 10
369.192640687
 20
332.232640687
 30
0.0
 11
369.192640687
 21
307.232640687
 31
0.0
  0
LINE
  5
1A4
330
1F
100
AcDbEntity
  8
0
  6
Continuous
 62
     1
100
AcDbLine
 10
369.192640687
 20
307.232640687
 30
0.0
 11
371.692640687
 21
307.232640687
 31
0.0
  0
LINE
  5
1A5
330
1F
100
AcDbEntity
  8
0
  6
Continuous
 62
     1
100
AcDbLine
 10
371.692640687
 20
307.232640687
 30
0.0
 11
371.692640687
 21
332.232640687
 31
0.0
  0
LINE
  5
1A6
330
1F
100
AcDbEntity
  8
0
  6
Continuous
 62
     1
100
AcDbLine
 10
371.692640687
 20
332.232640687
 30
0.0
 11
369.192640687
 21
332.232640687
 31
0.0
  0
LINE
  5
1A7
330
1F
100
AcDbEntity
  8
0
  6
Continuous
 62
     1
100
AcDbLine
 10
374.192640687
 20
332.232640687
 30
0.0
 11
374.192640687
 21
307.232640687
 31
0.0
  0
LINE
  5
1A8
330
1F
100
AcDbEntity
  8
0
  6
Continuous
 62
     1
100
AcDbLine
 10
374.192640687
 20
307.232640687
 30
0.0
 11
376.692640687
 21
307.232640687
 31
0.0
  0
LINE
  5
1A9
330
1F
100
AcDbEntity
  8
0
  6
Continuous
 62
     1
100
AcDbLine
 10
376.692640687
 20
307.232640687
 30
0.0
 11
376.692640687
 21
332.232640687
 31
0.0
  0
LINE
  5
1AA
330
1F
100
AcDbEntity
  8
0
  6
Continuous
 62
     1
100
AcDbLine
 10
376.692640687
 20
332.232640687
 30
0.0
 11
374.192640687
 21
332.232640687
 31
0.0
  0
LINE
  5
1AB
330
1F
100
AcDbEntity
  8
0
  6
Continuous
 62
     1
100
AcDbLine
 10
379.192640687
 20
332.232640687
 30
0.0
 11
379.192640687
 21
307.232640687
 31
0.0
  0
LINE
  5
1AC
330
1F
100
AcDbEntity
  8
0
  6
Continuous
 62
     1
100
AcDbLine
 10
379.192640687
 20
307.232640687
 30
0.0
 11
381.692640687
 21
307.232640687
 31
0.0
  0
LINE
  5
1AD
330
1F
100
AcDbEntity
  8
0
  6
Continuous
 62
     1
100
AcDbLine
 10
381.692640687
 20
307.232640687
 30
0.0
 11
381.692640687
 21
332.232640687
 31
0.0
  0
LINE
  5
1AE
330
1F
100
AcDbEntity
  8
0
  6
Continuous
 62
     1
100
AcDbLine
 10
381.692640687
 20
332.232640687
 30
0.0
 11
379.192640687
 21
332.232640687
 31
0.0
  0
LINE
  5
1AF
330
1F
100
AcDbEntity
  8
0
  6
Continuous
 62
     1
100
AcDbLine
 10
384.192640687
 20
332.232640687
 30
0.0
 11
384.192640687
 21
307.232640687
 31
0.0
  0
LINE
  5
1B0
330
1F
100
AcDbEntity
  8
0
  6
Continuous
 62
     1
100
AcDbLine
 10
384.192640687
 20
307.232640687
 30
0.0
 11
386.692640687
 21
307.232640687
 31
0.0
  0
LINE
  5
1B1
330
1F
100
AcDbEntity
  8
0
  6
Continuous
 62
     1
100
AcDbLine
 10
386.692640687
 20
307.232640687
 30
0.0
 11
386.692640687
 21
332.232640687
 31
0.0
  0
LINE
  5
1B2
330
1F
100
AcDbEntity
  8
0
  6
Continuous
 62
     1
100
AcDbLine
 10
386.692640687
 20
332.232640687
 30
0.0
 11
384.192640687
 21
332.232640687
 31
0.0
  0
LINE
  5
1B3
330
1F
100
AcDbEntity
  8
0
  6
Continuous
 62
     1
100
AcDbLine
 10
214.192640687
 20
372.232640687
 30
0.0
 11
214.192640687
 21
347.232640687
 31
0.0
  0
LINE
  5
1B4
330
1F
100
AcDbEntity
  8
0
  6
Continuous
 62
     1
100
AcDbLine
 10
214.192640687
 20
347.232640687
 30
0.0
 11
216.692640687
 21
347.232640687
 31
0.0
  0
LINE
  5
1B5
330
1F
100
AcDbEntity
  8
0
  6
Continuous
 62
     1
100
AcDbLine
 10
216.692640687
 20
347.232640687
 30
0.0
 11
216.692640687
 21
372.232640687
 31
0.0
  0
LINE
  5
1B6
330
1F
100
AcDbEntity
  8
0
  6
Continuous
 62
     1
100
AcDbLine
 10
216.692640687
 20
372.232640687
 30
0.0
 11
214.192640687
 21
372.232640687
 31
0.0
  0
LINE
  5
1B7
330
1F
100
AcDbEntity
  8
0
  6
Continuous
 62
     1
100
AcDbLine
 10
214.192640687
 20
398.732640687
 30
0.0
 11
214.192640687
 21
387.232640687
 31
0.0
  0
LINE
  5
1B8
330
1F
100
AcDbEntity
  8
0
  6
Continuous
 62
     1
100
AcDbLine
 10
214.192640687
 20
387.232640687
 30
0.0
 11
216.692640687
 21
387.232640687
 31
0.0
  0
LINE
  5
1B9
330
1F
100
AcDbEntity
  8
0
  6
Continuous
 62
     1
100
AcDbLine
 10
216.692640687
 20
387.232640687
 30
0.0
 11
216.692640687
 21
398.732640687
 31
0.0
  0
LINE
  5
1BA
330
1F
100
AcDbEntity
  8
0
  6
Continuous
 62
     1
100
AcDbLine
 10
219.192640687
 20
398.732640687
 30
0.0
 11
219.192640687
 21
387.232640687
 31
0.0
  0
LINE
  5
1BB
330
1F
100
AcDbEntity
  8
0
  6
Continuous
 62
     1
100
AcDbLine
 10
219.192640687
 20
387.232640687
 30
0.0
 11
221.692640687
 21
387.232640687
 31
0.0
  0
LINE
  5
1BC
330
1F
100
AcDbEntity
  8
0
  6
Continuous
 62
     1
100
AcDbLine
 10
221.692640687
 20
387.232640687
 30
0.0
 11
221.692640687
 21
398.732640687
 31
0.0
  0
LINE
  5
1BD
330
1F
100
AcDbEntity
  8
0
  6
Continuous
 62
     1
100
AcDbLine
 10
224.192640687
 20
398.732640687
 30
0.0
 11
224.192640687
 21
387.232640687
 31
0.0
  0
LINE
  5
1BE
330
1F
100
AcDbEntity
  8
0
  6
Continuous
 62
     1
100
AcDbLine
 10
224.192640687
 20
387.232640687
 30
0.0
 11
226.692640687
 21
387.232640687
 31
0.0
  0
LINE
  5
1BF
330
1F
100
AcDbEntity
  8
0
  6
Continuous
 62
     1
100
AcDbLine
 10
226.692640687
 20
387.232640687
 30
0.0
 11
226.692640687
 21
398.732640687
 31
0.0
  0
LINE
  5
1C0
330
1F
100
AcDbEntity
  8
0
  6
Continuous
 62
     1
100
AcDbLine
 10
229.192640687
 20
398.732640687
 30
0.0
 11
229.192640687
 21
387.232640687
 31
0.0
  0
LINE
  5
1C1
330
1F
100
AcDbEntity
  8
0
  6
Continuous
 62
     1
100
AcDbLine
 10
229.192640687
 20
387.232640687
 30
0.0
 11
231.692640687
 21
387.232640687
 31
0.0
  0
LINE
  5
1C2
330
1F
100
AcDbEntity
  8
0
  6
Continuous
 62
     1
100
AcDbLine
 10
231.692640687
 20
387.232640687
 30
0.0
 11
231.692640687
 21
398.732640687
 31
0.0
  0
LINE
  5
1C3
330
1F
100
AcDbEntity
  8
0
  6
Continuous
 62
     1
100
AcDbLine
 10
234.192640687
 20
398.732640687
 30
0.0
 11
234.192640687
 21
387.232640687
 31
0.0
  0
LINE
  5
1C4
330
1F
100
AcDbEntity
  8
0
  6
Continuous
 62
     1
100
AcDbLine
 10
234.192640687
 20
387.232640687
 30
0.0
 11
236.692640687
 21
387.232640687
 31
0.0
  0
LINE
  5
1C5
330
1F
100
AcDbEntity
  8
0
  6
Continuous
 62
     1
100
AcDbLine
 10
236.692640687
 20
387.232640687
 30
0.0
 11
236.692640687
 21
398.732640687
 31
0.0
  0
LINE
  5
1C6
330
1F
100
AcDbEntity
  8
0
  6
Continuous
 62
     1
100
AcDbLine
 10
239.192640687
 20
398.732640687
 30
0.0
 11
239.192640687
 21
387.232640687
 31
0.0
  0
LINE
  5
1C7
330
1F
100
AcDbEntity
  8
0
  6
Continuous
 62
     1
100
AcDbLine
 10
239.192640687
 20
387.232640687
 30
0.0
 11
241.692640687
 21
387.232640687
 31
0.0
  0
LINE
  5
1C8
330
1F
100
AcDbEntity
  8
0
  6
Continuous
 62
     1
100
AcDbLine
 10
241.692640687
 20
387.232640687
 30
0.0
 11
241.692640687
 21
398.732640687
 31
0.0
  0
LINE
  5
1C9
330
1F
100
AcDbEntity
  8
0
  6
Continuous
 62
     1
100
AcDbLine
 10
244.192640687
 20
398.732640687
 30
0.0
 11
244.192640687
 21
387.232640687
 31
0.0
  0
LINE
  5
1CA
330
1F
100
AcDbEntity
  8
0
  6
Continuous
 62
     1
100
AcDbLine
 10
244.192640687
 20
387.232640687
 30
0.0
 11
246.692640687
 21
387.232640687
 31
0.0
  0
LINE
  5
1CB
330
1F
100
AcDbEntity
  8
0
  6
Continuous
 62
     1
100
AcDbLine
 10
246.692640687
 20
387.232640687
 30
0.0
 11
246.692640687
 21
398.732640687
 31
0.0
  0
LINE
  5
1CC
330
1F
100
AcDbEntity
  8
0
  6
Continuous
 62
     1
100
AcDbLine
 10
249.192640687
 20
398.732640687
 30
0.0
 11
249.192640687
 21
387.232640687
 31
0.0
  0
LINE
  5
1CD
330
1F
100
AcDbEntity
  8
0
  6
Continuous
 62
     1
100
AcDbLine
 10
249.192640687
 20
387.232640687
 30
0.0
 11
251.692640687
 21
387.232640687
 31
0.0
  0
LINE
  5
1CE
330
1F
100
AcDbEntity
  8
0
  6
Continuous
 62
     1
100
AcDbLine
 10
251.692640687
 20
387.232640687
 30
0.0
 11
251.692640687
 21
398.732640687
 31
0.0
  0
LINE
  5
1CF
330
1F
100
AcDbEntity
  8
0
  6
Continuous
 62
     1
100
AcDbLine
 10
254.192640687
 20
398.732640687
 30
0.0
 11
254.192640687
 21
387.232640687
 31
0.0
  0
LINE
  5
1D0
330
1F
100
AcDbEntity
  8
0
  6
Continuous
 62
     1
100
AcDbLine
 10
254.192640687
 20
387.232640687
 30
0.0
 11
256.692640687
 21
387.232640687
 31
0.0
  0
LINE
  5
1D1
330
1F
100
AcDbEntity
  8
0
  6
Continuous
 62
     1
100
AcDbLine
 10
256.692640687
 20
387.232640687
 30
0.0
 11
256.692640687
 21
398.732640687
 31
0.0
  0
LINE
  5
1D2
330
1F
100
AcDbEntity
  8
0
  6
Continuous
 62
     1
100
AcDbLine
 10
259.192640687
 20
398.732640687
 30
0.0
 11
259.192640687
 21
387.232640687
 31
0.0
  0
LINE
  5
1D3
330
1F
100
AcDbEntity
  8
0
  6
Continuous
 62
     1
100
AcDbLine
 10
259.192640687
 20
387.232640687
 30
0.0
 11
261.692640687
 21
387.232640687
 31
0.0
  0
LINE
  5
1D4
330
1F
100
AcDbEntity
  8
0
  6
Continuous
 62
     1
100
AcDbLine
 10
261.692640687
 20
387.232640687
 30
0.0
 11
261.692640687
 21
398.732640687
 31
0.0
  0
LINE
  5
1D5
330
1F
100
AcDbEntity
  8
0
  6
Continuous
 62
     1
100
AcDbLine
 10
264.192640687
 20
398.732640687
 30
0.0
 11
264.192640687
 21
387.232640687
 31
0.0
  0
LINE
  5
1D6
330
1F
100
AcDbEntity
  8
0
  6
Continuous
 62
     1
100
AcDbLine
 10
264.192640687
 20
387.232640687
 30
0.0
 11
266.692640687
 21
387.232640687
 31
0.0
  0
LINE
  5
1D7
330
1F
100
AcDbEntity
  8
0
  6
Continuous
 62
     1
100
AcDbLine
 10
266.692640687
 20
387.232640687
 30
0.0
 11
266.692640687
 21
398.732640687
 31
0.0
  0
LINE
  5
1D8
330
1F
100
AcDbEntity
  8
0
  6
Continuous
 62
     1
100
AcDbLine
 10
269.192640687
 20
398.732640687
 30
0.0
 11
269.192640687
 21
387.232640687
 31
0.0
  0
LINE
  5
1D9
330
1F
100
AcDbEntity
  8
0
  6
Continuous
 62
     1
100
AcDbLine
 10
269.192640687
 20
387.232640687
 30
0.0
 11
271.692640687
 21
387.232640687
 31
0.0
  0
LINE
  5
1DA
330
1F
100
AcDbEntity
  8
0
  6
Continuous
 62
     1
100
AcDbLine
 10
271.692640687
 20
387.232640687
 30
0.0
 11
271.692640687
 21
398.732640687
 31
0.0
  0
LINE
  5
1DB
330
1F
100
AcDbEntity
  8
0
  6
Continuous
 62
     1
100
AcDbLine
 10
274.192640687
 20
398.732640687
 30
0.0
 11
274.192640687
 21
387.232640687
 31
0.0
  0
LINE
  5
1DC
330
1F
100
AcDbEntity
  8
0
  6
Continuous
 62
     1
100
AcDbLine
 10
274.192640687
 20
387.232640687
 30
0.0
 11
276.692640687
 21
387.232640687
 31
0.0
  0
LINE
  5
1DD
330
1F
100
AcDbEntity
  8
0
  6
Continuous
 62
     1
100
AcDbLine
 10
276.692640687
 20
387.232640687
 30
0.0
 11
276.692640687
 21
398.732640687
 31
0.0
  0
LINE
  5
1DE
330
1F
100
AcDbEntity
  8
0
  6
Continuous
 62
     1
100
AcDbLine
 10
279.192640687
 20
398.732640687
 30
0.0
 11
279.192640687
 21
387.232640687
 31
0.0
  0
LINE
  5
1DF
330
1F
100
AcDbEntity
  8
0
  6
Continuous
 62
     1
100
AcDbLine
 10
279.192640687
 20
387.232640687
 30
0.0
 11
281.692640687
 21
387.232640687
 31
0.0
  0
LINE
  5
1E0
330
1F
100
AcDbEntity
  8
0
  6
Continuous
 62
     1
100
AcDbLine
 10
281.692640687
 20
387.232640687
 30
0.0
 11
281.692640687
 21
398.732640687
 31
0.0
  0
LINE
  5
1E1
330
1F
100
AcDbEntity
  8
0
  6
Continuous
 62
     1
100
AcDbLine
 10
284.192640687
 20
398.732640687
 30
0.0
 11
284.192640687
 21
387.232640687
 31
0.0
  0
LINE
  5
1E2
330
1F
100
AcDbEntity
  8
0
  6
Continuous
 62
     1
100
AcDbLine
 10
284.192640687
 20
387.232640687
 30
0.0
 11
286.692640687
 21
387.232640687
 31
0.0
  0
LINE
  5
1E3
330
1F
100
AcDbEntity
  8
0
  6
Continuous
 62
     1
100
AcDbLine
 10
286.692640687
 20
387.232640687
 30
0.0
 11
286.692640687
 21
398.732640687
 31
0.0
  0
LINE
  5
1E4
330
1F
100
AcDbEntity
  8
0
  6
Continuous
 62
     1
100
AcDbLine
 10
289.192640687
 20
398.732640687
 30
0.0
 11
289.192640687
 21
387.232640687
 31
0.0
  0
LINE
  5
1E5
330
1F
100
AcDbEntity
  8
0
  6
Continuous
 62
     1
100
AcDbLine
 10
289.192640687
 20
387.232640687
 30
0.0
 11
291.692640687
 21
387.232640687
 31
0.0
  0
LINE
  5
1E6
330
1F
100
AcDbEntity
  8
0
  6
Continuous
 62
     1
100
AcDbLine
 10
291.692640687
 20
387.232640687
 30
0.0
 11
291.692640687
 21
398.732640687
 31
0.0
  0
LINE
  5
1E7
330
1F
100
AcDbEntity
  8
0
  6
Continuous
 62
     1
100
AcDbLine
 10
294.192640687
 20
398.732640687
 30
0.0
 11
294.192640687
 21
387.232640687
 31
0.0
  0
LINE
  5
1E8
330
1F
100
AcDbEntity
  8
0
  6
Continuous
 62
     1
100
AcDbLine
 10
294.192640687
 20
387.232640687
 30
0.0
 11
296.692640687
 21
387.232640687
 31
0.0
  0
LINE
  5
1E9
330
1F
100
AcDbEntity
  8
0
  6
Continuous
 62
     1
100
AcDbLine
 10
296.692640687
 20
387.232640687
 30
0.0
 11
296.692640687
 21
398.732640687
 31
0.0
  0
LINE
  5
1EA
330
1F
100
AcDbEntity
  8
0
  6
Continuous
 62
     1
100
AcDbLine
 10
299.192640687
 20
398.732640687
 30
0.0
 11
299.192640687
 21
387.232640687
 31
0.0
  0
LINE
  5
1EB
330
1F
100
AcDbEntity
  8
0
  6
Continuous
 62
     1
100
AcDbLine
 10
299.192640687
 20
387.232640687
 30
0.0
 11
301.692640687
 21
387.232640687
 31
0.0
  0
LINE
  5
1EC
330
1F
100
AcDbEntity
  8
0
  6
Continuous
 62
     1
100
AcDbLine
 10
301.692640687
 20
387.232640687
 30
0.0
 11
301.692640687
 21
398.732640687
 31
0.0
  0
LINE
  5
1ED
330
1F
100
AcDbEntity
  8
0
  6
Continuous
 62
     1
100
AcDbLine
 10
304.192640687
 20
398.732640687
 30
0.0
 11
304.192640687
 21
387.232640687
 31
0.0
  0
LINE
  5
1EE
330
1F
100
AcDbEntity
  8
0
  6
Continuous
 62
     1
100
AcDbLine
 10
304.192640687
 20
387.232640687
 30
0.0
 11
306.692640687
 21
387.232640687
 31
0.0
  0
LINE
  5
1EF
330
1F
100
AcDbEntity
  8
0
  6
Continuous
 62
     1
100
AcDbLine
 10
306.692640687
 20
387.232640687
 30
0.0
 11
306.692640687
 21
398.732640687
 31
0.0
  0
LINE
  5
1F0
330
1F
100
AcDbEntity
  8
0
  6
Continuous
 62
     1
100
AcDbLine
 10
309.192640687
 20
398.732640687
 30
0.0
 11
309.192640687
 21
387.232640687
 31
0.0
  0
LINE
  5
1F1
330
1F
100
AcDbEntity
  8
0
  6
Continuous
 62
     1
100
AcDbLine
 10
309.192640687
 20
387.232640687
 30
0.0
 11
311.692640687
 21
387.232640687
 31
0.0
  0
LINE
  5
1F2
330
1F
100
AcDbEntity
  8
0
  6
Continuous
 62
     1
100
AcDbLine
 10
311.692640687
 20
387.232640687
 30
0.0
 11
311.692640687
 21
398.732640687
 31
0.0
  0
LINE
  5
1F3
330
1F
100
AcDbEntity
  8
0
  6
Continuous
 62
     1
100
AcDbLine
 10
314.192640687
 20
398.732640687
 30
0.0
 11
314.192640687
 21
387.232640687
 31
0.0
  0
LINE
  5
1F4
330
1F
100
AcDbEntity
  8
0
  6
Continuous
 62
     1
100
AcDbLine
 10
314.192640687
 20
387.232640687
 30
0.0
 11
316.692640687
 21
387.232640687
 31
0.0
  0
LINE
  5
1F5
330
1F
100
AcDbEntity
  8
0
  6
Continuous
 62
     1
100
AcDbLine
 10
316.692640687
 20
387.232640687
 30
0.0
 11
316.692640687
 21
398.732640687
 31
0.0
  0
LINE
  5
1F6
330
1F
100
AcDbEntity
  8
0
  6
Continuous
 62
     1
100
AcDbLine
 10
319.192640687
 20
398.732640687
 30
0.0
 11
319.192640687
 21
387.232640687
 31
0.0
  0
LINE
  5
1F7
330
1F
100
AcDbEntity
  8
0
  6
Continuous
 62
     1
100
AcDbLine
 10
319.192640687
 20
387.232640687
 30
0.0
 11
321.692640687
 21
387.232640687
 31
0.0
  0
LINE
  5
1F8
330
1F
100
AcDbEntity
  8
0
  6
Continuous
 62
     1
100
AcDbLine
 10
321.692640687
 20
387.232640687
 30
0.0
 11
321.692640687
 21
398.732640687
 31
0.0
  0
LINE
  5
1F9
330
1F
100
AcDbEntity
  8
0
  6
Continuous
 62
     1
100
AcDbLine
 10
324.192640687
 20
398.732640687
 30
0.0
 11
324.192640687
 21
387.232640687
 31
0.0
  0
LINE
  5
1FA
330
1F
100
AcDbEntity
  8
0
  6
Continuous
 62
     1
100
AcDbLine
 10
324.192640687
 20
387.232640687
 30
0.0
 11
326.692640687
 21
387.232640687
 31
0.0
  0
LINE
  5
1FB
330
1F
100
AcDbEntity
  8
0
  6
Continuous
 62
     1
100
AcDbLine
 10
326.692640687
 20
387.232640687
 30
0.0
 11
326.692640687
 21
398.732640687
 31
0.0
  0
LINE
  5
1FC
330
1F
100
AcDbEntity
  8
0
  6
Continuous
 62
     1
100
AcDbLine
 10
329.192640687
 20
398.732640687
 30
0.0
 11
329.192640687
 21
387.232640687
 31
0.0
  0
LINE
  5
1FD
330
1F
100
AcDbEntity
  8
0
  6
Continuous
 62
     1
100
AcDbLine
 10
329.192640687
 20
387.232640687
 30
0.0
 11
331.692640687
 21
387.232640687
 31
0.0
  0
LINE
  5
1FE
330
1F
100
AcDbEntity
  8
0
  6
Continuous
 62
     1
100
AcDbLine
 10
331.692640687
 20
387.232640687
 30
0.0
 11
331.692640687
 21
398.732640687
 31
0.0
  0
LINE
  5
1FF
330
1F
100
AcDbEntity
  8
0
  6
Continuous
 62
     1
100
AcDbLine
 10
334.192640687
 20
398.732640687
 30
0.0
 11
334.192640687
 21
387.232640687
 31
0.0
  0
LINE
  5
200
330
1F
100
AcDbEntity
  8
0
  6
Continuous
 62
     1
100
AcDbLine
 10
334.192640687
 20
387.232640687
 30
0.0
 11
336.692640687
 21
387.232640687
 31
0.0
  0
LINE
  5
201
330
1F
100
AcDbEntity
  8
0
  6
Continuous
 62
     1
100
AcDbLine
 10
336.692640687
 20
387.232640687
 30
0.0
 11
336.692640687
 21
398.732640687
 31
0.0
  0
LINE
  5
202
330
1F
100
AcDbEntity
  8
0
  6
Continuous
 62
     1
100
AcDbLine
 10
339.192640687
 20
398.732640687
 30
0.0
 11
339.192640687
 21
387.232640687
 31
0.0
  0
LINE
  5
203
330
1F
100
AcDbEntity
  8
0
  6
Continuous
 62
     1
100
AcDbLine
 10
339.192640687
 20
387.232640687
 30
0.0
 11
341.692640687
 21
387.232640687
 31
0.0
  0
LINE
  5
204
330
1F
100
AcDbEntity
  8
0
  6
Continuous
 62
     1
100
AcDbLine
 10
341.692640687
 20
387.232640687
 30
0.0
 11
341.692640687
 21
398.732640687
 31
0.0
  0
LINE
  5
205
330
1F
100
AcDbEntity
  8
0
  6
Continuous
 62
     1
100
AcDbLine
 10
344.192640687
 20
398.732640687
 30
0.0
 11
344.192640687
 21
387.232640687
 31
0.0
  0
LINE
  5
206
330
1F
100
AcDbEntity
  8
0
  6
Continuous
 62
     1
100
AcDbLine
 10
344.192640687
 20
387.232640687
 30
0.0
 11
346.692640687
 21
387.232640687
 31
0.0
  0
LINE
  5
207
330
1F
100
AcDbEntity
  8
0
  6
Continuous
 62
     1
100
AcDbLine
 10
346.692640687
 20
387.232640687
 30
0.0
 11
346.692640687
 21
398.732640687
 31
0.0
  0
LINE
  5
208
330
1F
100
AcDbEntity
  8
0
  6
Continuous
 62
     1
100
AcDbLine
 10
349.192640687
 20
398.732640687
 30
0.0
 11
349.192640687
 21
387.232640687
 31
0.0
  0
LINE
  5
209
330
1F
100
AcDbEntity
  8
0
  6
Continuous
 62
     1
100
AcDbLine
 10
349.192640687
 20
387.232640687
 30
0.0
 11
351.692640687
 21
387.232640687
 31
0.0
  0
LINE
  5
20A
330
1F
100
AcDbEntity
  8
0
  6
Continuous
 62
     1
100
AcDbLine
 10
351.692640687
 20
387.232640687
 30
0.0
 11
351.692640687
 21
398.732640687
 31
0.0
  0
LINE
  5
20B
330
1F
100
AcDbEntity
  8
0
  6
Continuous
 62
     1
100
AcDbLine
 10
354.192640687
 20
398.732640687
 30
0.0
 11
354.192640687
 21
387.232640687
 31
0.0
  0
LINE
  5
20C
330
1F
100
AcDbEntity
  8
0
  6
Continuous
 62
     1
100
AcDbLine
 10
354.192640687
 20
387.232640687
 30
0.0
 11
356.692640687
 21
387.232640687
 31
0.0
  0
LINE
  5
20D
330
1F
100
AcDbEntity
  8
0
  6
Continuous
 62
     1
100
AcDbLine
 10
356.692640687
 20
387.232640687
 30
0.0
 11
356.692640687
 21
398.732640687
 31
0.0
  0
LINE
  5
20E
330
1F
100
AcDbEntity
  8
0
  6
Continuous
 62
     1
100
AcDbLine
 10
359.192640687
 20
398.732640687
 30
0.0
 11
359.192640687
 21
387.232640687
 31
0.0
  0
LINE
  5
20F
330
1F
100
AcDbEntity
  8
0
  6
Continuous
 62
     1
100
AcDbLine
 10
359.192640687
 20
387.232640687
 30
0.0
 11
361.692640687
 21
387.232640687
 31
0.0
  0
LINE
  5
210
330
1F
100
AcDbEntity
  8
0
  6
Continuous
 62
     1
100
AcDbLine
 10
361.692640687
 20
387.232640687
 30
0.0
 11
361.692640687
 21
398.732640687
 31
0.0
  0
LINE
  5
211
330
1F
100
AcDbEntity
  8
0
  6
Continuous
 62
     1
100
AcDbLine
 10
364.192640687
 20
398.732640687
 30
0.0
 11
364.192640687
 21
387.232640687
 31
0.0
  0
LINE
  5
212
330
1F
100
AcDbEntity
  8
0
  6
Continuous
 62
     1
100
AcDbLine
 10
364.192640687
 20
387.232640687
 30
0.0
 11
366.692640687
 21
387.232640687
 31
0.0
  0
LINE
  5
213
330
1F
100
AcDbEntity
  8
0
  6
Continuous
 62
     1
100
AcDbLine
 10
366.692640687
 20
387.232640687
 30
0.0
 11
366.692640687
 21
398.732640687
 31
0.0
  0
LINE
  5
214
330
1F
100
AcDbEntity
  8
0
  6
Continuous
 62
     1
100
AcDbLine
 10
369.192640687
 20
398.732640687
 30
0.0
 11
369.192640687
 21
387.232640687
 31
0.0
  0
LINE
  5
215
330
1F
100
AcDbEntity
  8
0
  6
Continuous
 62
     1
100
AcDbLine
 10
369.192640687
 20
387.232640687
 30
0.0
 11
371.692640687
 21
387.232640687
 31
0.0
  0
LINE
  5
216
330
1F
100
AcDbEntity
  8
0
  6
Continuous
 62
     1
100
AcDbLine
 10
371.692640687
 20
387.232640687
 30
0.0
 11
371.692640687
 21
398.732640687
 31
0.0
  0
LINE
  5
217
330
1F
100
AcDbEntity
  8
0
  6
Continuous
 62
     1
100
AcDbLine
 10
374.192640687
 20
398.732640687
 30
0.0
 11
374.192640687
 21
387.232640687
 31
0.0
  0
LINE
  5
218
330
1F
100
AcDbEntity
  8
0
  6
Continuous
 62
     1
100
AcDbLine
 10
374.192640687
 20
387.232640687
 30
0.0
 11
376.692640687
 21
387.232640687
 31
0.0
  0
LINE
  5
219
330
1F
100
AcDbEntity
  8
0
  6
Continuous
 62
     1
100
AcDbLine
 10
376.692640687
 20
387.232640687
 30
0.0
 11
376.692640687
 21
398.732640687
 31
0.0
  0
LINE
  5
21A
330
1F
100
AcDbEntity
  8
0
  6
Continuous
 62
     1
100
AcDbLine
 10
379.192640687
 20
398.732640687
 30
0.0
 11
379.192640687
 21
387.232640687
 31
0.0
  0
LINE
  5
21B
330
1F
100
AcDbEntity
  8
0
  6
Continuous
 62
     1
100
AcDbLine
 10
379.192640687
 20
387.232640687
 30
0.0
 11
381.692640687
 21
387.232640687
 31
0.0
  0
LINE
  5
21C
330
1F
100
AcDbEntity
  8
0
  6
Continuous
 62
     1
100
AcDbLine
 10
381.692640687
 20
387.232640687
 30
0.0
 11
381.692640687
 21
398.732640687
 31
0.0
  0
LINE
  5
21D
330
1F
100
AcDbEntity
  8
0
  6
Continuous
 62
     1
100
AcDbLine
 10
384.192640687
 20
398.732640687
 30
0.0
 11
384.192640687
 21
387.232640687
 31
0.0
  0
LINE
  5
21E
330
1F
100
AcDbEntity
  8
0
  6
Continuous
 62
     1
100
AcDbLine
 10
384.192640687
 20
387.232640687
 30
0.0
 11
386.692640687
 21
387.232640687
 31
0.0
  0
LINE
  5
21F
330
1F
100
AcDbEntity
  8
0
  6
Continuous
 62
     1
100
AcDbLine
 10
386.692640687
 20
387.232640687
 30
0.0
 11
386.692640687
 21
398.732640687
 31
0.0
  0
LINE
  5
220
330
1F
100
AcDbEntity
  8
0
  6
Continuous
 62
     1
100
AcDbLine
 10
219.192640687
 20
372.232640687
 30
0.0
 11
219.192640687
 21
347.232640687
 31
0.0
  0
LINE
  5
221
330
1F
100
AcDbEntity
  8
0
  6
Continuous
 62
     1
100
AcDbLine
 10
219.192640687
 20
347.232640687
 30
0.0
 11
221.692640687
 21
347.232640687
 31
0.0
  0
LINE
  5
222
330
1F
100
AcDbEntity
  8
0
  6
Continuous
 62
     1
100
AcDbLine
 10
221.692640687
 20
347.232640687
 30
0.0
 11
221.692640687
 21
372.232640687
 31
0.0
  0
LINE
  5
223
330
1F
100
AcDbEntity
  8
0
  6
Continuous
 62
     1
100
AcDbLine
 10
221.692640687
 20
372.232640687
 30
0.0
 11
219.192640687
 21
372.232640687
 31
0.0
  0
LINE
  5
224
330
1F
100
AcDbEntity
  8
0
  6
Continuous
 62
     1
100
AcDbLine
 10
224.192640687
 20
372.232640687
 30
0.0
 11
224.192640687
 21
347.232640687
 31
0.0
  0
LINE
  5
225
330
1F
100
AcDbEntity
  8
0
  6
Continuous
 62
     1
100
AcDbLine
 10
224.192640687
 20
347.232640687
 30
0.0
 11
226.692640687
 21
347.232640687
 31
0.0
  0
LINE
  5
226
330
1F
100
AcDbEntity
  8
0
  6
Continuous
 62
     1
100
AcDbLine
 10
226.692640687
 20
347.232640687
 30
0.0
 11
226.692640687
 21
372.232640687
 31
0.0
  0
LINE
  5
227
330
1F
100
AcDbEntity
  8
0
  6
Continuous
 62
     1
100
AcDbLine
 10
226.692640687
 20
372.232640687
 30
0.0
 11
224.192640687
 21
372.232640687
 31
0.0
  0
LINE
  5
228
330
1F
100
AcDbEntity
  8
0
  6
Continuous
 62
     1
100
AcDbLine
 10
229.192640687
 20
372.232640687
 30
0.0
 11
229.192640687
 21
347.232640687
 31
0.0
  0
LINE
  5
229
330
1F
100
AcDbEntity
  8
0
  6
Continuous
 62
     1
100
AcDbLine
 10
229.192640687
 20
347.232640687
 30
0.0
 11
231.692640687
 21
347.232640687
 31
0.0
  0
LINE
  5
22A
330
1F
100
AcDbEntity
  8
0
  6
Continuous
 62
     1
100
AcDbLine
 10
231.692640687
 20
347.232640687
 30
0.0
 11
231.692640687
 21
372.232640687
 31
0.0
  0
LINE
  5
22B
330
1F
100
AcDbEntity
  8
0
  6
Continuous
 62
     1
100
AcDbLine
 10
231.692640687
 20
372.232640687
 30
0.0
 11
229.192640687
 21
372.232640687
 31
0.0
  0
LINE
  5
22C
330
1F
100
AcDbEntity
  8
0
  6
Continuous
 62
     1
100
AcDbLine
 10
234.192640687
 20
372.232640687
 30
0.0
 11
234.192640687
 21
347.232640687
 31
0.0
  0
LINE
  5
22D
330
1F
100
AcDbEntity
  8
0
  6
Continuous
 62
     1
100
AcDbLine
 10
234.192640687
 20
347.232640687
 30
0.0
 11
236.692640687
 21
347.232640687
 31
0.0
  0
LINE
  5
22E
330
1F
100
AcDbEntity
  8
0
  6
Continuous
 62
     1
100
AcDbLine
 10
236.692640687
 20
347.232640687
 30
0.0
 11
236.692640687
 21
372.232640687
 31
0.0
  0
LINE
  5
22F
330
1F
100
AcDbEntity
  8
0
  6
Continuous
 62
     1
100
AcDbLine
 10
236.692640687
 20
372.232640687
 30
0.0
 11
234.192640687
 21
372.232640687
 31
0.0
  0
LINE
  5
230
330
1F
100
AcDbEntity
  8
0
  6
Continuous
 62
     1
100
AcDbLine
 10
239.192640687
 20
372.232640687
 30
0.0
 11
239.192640687
 21
347.232640687
 31
0.0
  0
LINE
  5
231
330
1F
100
AcDbEntity
  8
0
  6
Continuous
 62
     1
100
AcDbLine
 10
239.192640687
 20
347.232640687
 30
0.0
 11
241.692640687
 21
347.232640687
 31
0.0
  0
LINE
  5
232
330
1F
100
AcDbEntity
  8
0
  6
Continuous
 62
     1
100
AcDbLine
 10
241.692640687
 20
347.232640687
 30
0.0
 11
241.692640687
 21
372.232640687
 31
0.0
  0
LINE
  5
233
330
1F
100
AcDbEntity
  8
0
  6
Continuous
 62
     1
100
AcDbLine
 10
241.692640687
 20
372.232640687
 30
0.0
 11
239.192640687
 21
372.232640687
 31
0.0
  0
LINE
  5
234
330
1F
100
AcDbEntity
  8
0
  6
Continuous
 62
     1
100
AcDbLine
 10
244.192640687
 20
372.232640687
 30
0.0
 11
244.192640687
 21
347.232640687
 31
0.0
  0
LINE
  5
235
330
1F
100
AcDbEntity
  8
0
  6
Continuous
 62
     1
100
AcDbLine
 10
244.192640687
 20
347.232640687
 30
0.0
 11
246.692640687
 21
347.232640687
 31
0.0
  0
LINE
  5
236
330
1F
100
AcDbEntity
  8
0
  6
Continuous
 62
     1
100
AcDbLine
 10
246.692640687
 20
347.232640687
 30
0.0
 11
246.692640687
 21
372.232640687
 31
0.0
  0
LINE
  5
237
330
1F
100
AcDbEntity
  8
0
  6
Continuous
 62
     1
100
AcDbLine
 10
246.692640687
 20
372.232640687
 30
0.0
 11
244.192640687
 21
372.232640687
 31
0.0
  0
LINE
  5
238
330
1F
100
AcDbEntity
  8
0
  6
Continuous
 62
     1
100
AcDbLine
 10
249.192640687
 20
372.232640687
 30
0.0
 11
249.192640687
 21
347.232640687
 31
0.0
  0
LINE
  5
239
330
1F
100
AcDbEntity
  8
0
  6
Continuous
 62
     1
100
AcDbLine
 10
249.192640687
 20
347.232640687
 30
0.0
 11
251.692640687
 21
347.232640687
 31
0.0
  0
LINE
  5
23A
330
1F
100
AcDbEntity
  8
0
  6
Continuous
 62
     1
100
AcDbLine
 10
251.692640687
 20
347.232640687
 30
0.0
 11
251.692640687
 21
372.232640687
 31
0.0
  0
LINE
  5
23B
330
1F
100
AcDbEntity
  8
0
  6
Continuous
 62
     1
100
AcDbLine
 10
251.692640687
 20
372.232640687
 30
0.0
 11
249.192640687
 21
372.232640687
 31
0.0
  0
LINE
  5
23C
330
1F
100
AcDbEntity
  8
0
  6
Continuous
 62
     1
100
AcDbLine
 10
254.192640687
 20
372.232640687
 30
0.0
 11
254.192640687
 21
347.232640687
 31
0.0
  0
LINE
  5
23D
330
1F
100
AcDbEntity
  8
0
  6
Continuous
 62
     1
100
AcDbLine
 10
254.192640687
 20
347.232640687
 30
0.0
 11
256.692640687
 21
347.232640687
 31
0.0
  0
LINE
  5
23E
330
1F
100
AcDbEntity
  8
0
  6
Continuous
 62
     1
100
AcDbLine
 10
256.692640687
 20
347.232640687
 30
0.0
 11
256.692640687
 21
372.232640687
 31
0.0
  0
LINE
  5
23F
330
1F
100
AcDbEntity
  8
0
  6
Continuous
 62
     1
100
AcDbLine
 10
256.692640687
 20
372.232640687
 30
0.0
 11
254.192640687
 21
372.232640687
 31
0.0
  0
LINE
  5
240
330
1F
100
AcDbEntity
  8
0
  6
Continuous
 62
     1
100
AcDbLine
 10
259.192640687
 20
372.232640687
 30
0.0
 11
259.192640687
 21
347.232640687
 31
0.0
  0
LINE
  5
241
330
1F
100
AcDbEntity
  8
0
  6
Continuous
 62
     1
100
AcDbLine
 10
259.192640687
 20
347.232640687
 30
0.0
 11
261.692640687
 21
347.232640687
 31
0.0
  0
LINE
  5
242
330
1F
100
AcDbEntity
  8
0
  6
Continuous
 62
     1
100
AcDbLine
 10
261.692640687
 20
347.232640687
 30
0.0
 11
261.692640687
 21
372.232640687
 31
0.0
  0
LINE
  5
243
330
1F
100
AcDbEntity
  8
0
  6
Continuous
 62
     1
100
AcDbLine
 10
261.692640687
 20
372.232640687
 30
0.0
 11
259.192640687
 21
372.232640687
 31
0.0
  0
LINE
  5
244
330
1F
100
AcDbEntity
  8
0
  6
Continuous
 62
     1
100
AcDbLine
 10
264.192640687
 20
372.232640687
 30
0.0
 11
264.192640687
 21
347.232640687
 31
0.0
  0
LINE
  5
245
330
1F
100
AcDbEntity
  8
0
  6
Continuous
 62
     1
100
AcDbLine
 10
264.192640687
 20
347.232640687
 30
0.0
 11
266.692640687
 21
347.232640687
 31
0.0
  0
LINE
  5
246
330
1F
100
AcDbEntity
  8
0
  6
Continuous
 62
     1
100
AcDbLine
 10
266.692640687
 20
347.232640687
 30
0.0
 11
266.692640687
 21
372.232640687
 31
0.0
  0
LINE
  5
247
330
1F
100
AcDbEntity
  8
0
  6
Continuous
 62
     1
100
AcDbLine
 10
266.692640687
 20
372.232640687
 30
0.0
 11
264.192640687
 21
372.232640687
 31
0.0
  0
LINE
  5
248
330
1F
100
AcDbEntity
  8
0
  6
Continuous
 62
     1
100
AcDbLine
 10
269.192640687
 20
372.232640687
 30
0.0
 11
269.192640687
 21
347.232640687
 31
0.0
  0
LINE
  5
249
330
1F
100
AcDbEntity
  8
0
  6
Continuous
 62
     1
100
AcDbLine
 10
269.192640687
 20
347.232640687
 30
0.0
 11
271.692640687
 21
347.232640687
 31
0.0
  0
LINE
  5
24A
330
1F
100
AcDbEntity
  8
0
  6
Continuous
 62
     1
100
AcDbLine
 10
271.692640687
 20
347.232640687
 30
0.0
 11
271.692640687
 21
372.232640687
 31
0.0
  0
LINE
  5
24B
330
1F
100
AcDbEntity
  8
0
  6
Continuous
 62
     1
100
AcDbLine
 10
271.692640687
 20
372.232640687
 30
0.0
 11
269.192640687
 21
372.232640687
 31
0.0
  0
LINE
  5
24C
330
1F
100
AcDbEntity
  8
0
  6
Continuous
 62
     1
100
AcDbLine
 10
274.192640687
 20
372.232640687
 30
0.0
 11
274.192640687
 21
347.232640687
 31
0.0
  0
LINE
  5
24D
330
1F
100
AcDbEntity
  8
0
  6
Continuous
 62
     1
100
AcDbLine
 10
274.192640687
 20
347.232640687
 30
0.0
 11
276.692640687
 21
347.232640687
 31
0.0
  0
LINE
  5
24E
330
1F
100
AcDbEntity
  8
0
  6
Continuous
 62
     1
100
AcDbLine
 10
276.692640687
 20
347.232640687
 30
0.0
 11
276.692640687
 21
372.232640687
 31
0.0
  0
LINE
  5
24F
330
1F
100
AcDbEntity
  8
0
  6
Continuous
 62
     1
100
AcDbLine
 10
276.692640687
 20
372.232640687
 30
0.0
 11
274.192640687
 21
372.232640687
 31
0.0
  0
LINE
  5
250
330
1F
100
AcDbEntity
  8
0
  6
Continuous
 62
     1
100
AcDbLine
 10
279.192640687
 20
372.232640687
 30
0.0
 11
279.192640687
 21
347.232640687
 31
0.0
  0
LINE
  5
251
330
1F
100
AcDbEntity
  8
0
  6
Continuous
 62
     1
100
AcDbLine
 10
279.192640687
 20
347.232640687
 30
0.0
 11
281.692640687
 21
347.232640687
 31
0.0
  0
LINE
  5
252
330
1F
100
AcDbEntity
  8
0
  6
Continuous
 62
     1
100
AcDbLine
 10
281.692640687
 20
347.232640687
 30
0.0
 11
281.692640687
 21
372.232640687
 31
0.0
  0
LINE
  5
253
330
1F
100
AcDbEntity
  8
0
  6
Continuous
 62
     1
100
AcDbLine
 10
281.692640687
 20
372.232640687
 30
0.0
 11
279.192640687
 21
372.232640687
 31
0.0
  0
LINE
  5
254
330
1F
100
AcDbEntity
  8
0
  6
Continuous
 62
     1
100
AcDbLine
 10
284.192640687
 20
372.232640687
 30
0.0
 11
284.192640687
 21
347.232640687
 31
0.0
  0
LINE
  5
255
330
1F
100
AcDbEntity
  8
0
  6
Continuous
 62
     1
100
AcDbLine
 10
284.192640687
 20
347.232640687
 30
0.0
 11
286.692640687
 21
347.232640687
 31
0.0
  0
LINE
  5
256
330
1F
100
AcDbEntity
  8
0
  6
Continuous
 62
     1
100
AcDbLine
 10
286.692640687
 20
347.232640687
 30
0.0
 11
286.692640687
 21
372.232640687
 31
0.0
  0
LINE
  5
257
330
1F
100
AcDbEntity
  8
0
  6
Continuous
 62
     1
100
AcDbLine
 10
286.692640687
 20
372.232640687
 30
0.0
 11
284.192640687
 21
372.232640687
 31
0.0
  0
LINE
  5
258
330
1F
100
AcDbEntity
  8
0
  6
Continuous
 62
     1
100
AcDbLine
 10
289.192640687
 20
372.232640687
 30
0.0
 11
289.192640687
 21
347.232640687
 31
0.0
  0
LINE
  5
259
330
1F
100
AcDbEntity
  8
0
  6
Continuous
 62
     1
100
AcDbLine
 10
289.192640687
 20
347.232640687
 30
0.0
 11
291.692640687
 21
347.232640687
 31
0.0
  0
LINE
  5
25A
330
1F
100
AcDbEntity
  8
0
  6
Continuous
 62
     1
100
AcDbLine
 10
291.692640687
 20
347.232640687
 30
0.0
 11
291.692640687
 21
372.232640687
 31
0.0
  0
LINE
  5
25B
330
1F
100
AcDbEntity
  8
0
  6
Continuous
 62
     1
100
AcDbLine
 10
291.692640687
 20
372.232640687
 30
0.0
 11
289.192640687
 21
372.232640687
 31
0.0
  0
LINE
  5
25C
330
1F
100
AcDbEntity
  8
0
  6
Continuous
 62
     1
100
AcDbLine
 10
294.192640687
 20
372.232640687
 30
0.0
 11
294.192640687
 21
347.232640687
 31
0.0
  0
LINE
  5
25D
330
1F
100
AcDbEntity
  8
0
  6
Continuous
 62
     1
100
AcDbLine
 10
294.192640687
 20
347.232640687
 30
0.0
 11
296.692640687
 21
347.232640687
 31
0.0
  0
LINE
  5
25E
330
1F
100
AcDbEntity
  8
0
  6
Continuous
 62
     1
100
AcDbLine
 10
296.692640687
 20
347.232640687
 30
0.0
 11
296.692640687
 21
372.232640687
 31
0.0
  0
LINE
  5
25F
330
1F
100
AcDbEntity
  8
0
  6
Continuous
 62
     1
100
AcDbLine
 10
296.692640687
 20
372.232640687
 30
0.0
 11
294.192640687
 21
372.232640687
 31
0.0
  0
LINE
  5
260
330
1F
100
AcDbEntity
  8
0
  6
Continuous
 62
     1
100
AcDbLine
 10
299.192640687
 20
372.232640687
 30
0.0
 11
299.192640687
 21
347.232640687
 31
0.0
  0
LINE
  5
261
330
1F
100
AcDbEntity
  8
0
  6
Continuous
 62
     1
100
AcDbLine
 10
299.192640687
 20
347.232640687
 30
0.0
 11
301.692640687
 21
347.232640687
 31
0.0
  0
LINE
  5
262
330
1F
100
AcDbEntity
  8
0
  6
Continuous
 62
     1
100
AcDbLine
 10
301.692640687
 20
347.232640687
 30
0.0
 11
301.692640687
 21
372.232640687
 31
0.0
  0
LINE
  5
263
330
1F
100
AcDbEntity
  8
0
  6
Continuous
 62
     1
100
AcDbLine
 10
301.692640687
 20
372.232640687
 30
0.0
 11
299.192640687
 21
372.232640687
 31
0.0
  0
LINE
  5
264
330
1F
100
AcDbEntity
  8
0
  6
Continuous
 62
     1
100
AcDbLine
 10
304.192640687
 20
372.232640687
 30
0.0
 11
304.192640687
 21
347.232640687
 31
0.0
  0
LINE
  5
265
330
1F
100
AcDbEntity
  8
0
  6
Continuous
 62
     1
100
AcDbLine
 10
304.192640687
 20
347.232640687
 30
0.0
 11
306.692640687
 21
347.232640687
 31
0.0
  0
LINE
  5
266
330
1F
100
AcDbEntity
  8
0
  6
Continuous
 62
     1
100
AcDbLine
 10
306.692640687
 20
347.232640687
 30
0.0
 11
306.692640687
 21
372.232640687
 31
0.0
  0
LINE
  5
267
330
1F
100
AcDbEntity
  8
0
  6
Continuous
 62
     1
100
AcDbLine
 10
306.692640687
 20
372.232640687
 30
0.0
 11
304.192640687
 21
372.232640687
 31
0.0
  0
LINE
  5
268
330
1F
100
AcDbEntity
  8
0
  6
Continuous
 62
     1
100
AcDbLine
 10
309.192640687
 20
372.232640687
 30
0.0
 11
309.192640687
 21
347.232640687
 31
0.0
  0
LINE
  5
269
330
1F
100
AcDbEntity
  8
0
  6
Continuous
 62
     1
100
AcDbLine
 10
309.192640687
 20
347.232640687
 30
0.0
 11
311.692640687
 21
347.232640687
 31
0.0
  0
LINE
  5
26A
330
1F
100
AcDbEntity
  8
0
  6
Continuous
 62
     1
100
AcDbLine
 10
311.692640687
 20
347.232640687
 30
0.0
 11
311.692640687
 21
372.232640687
 31
0.0
  0
LINE
  5
26B
330
1F
100
AcDbEntity
  8
0
  6
Continuous
 62
     1
100
AcDbLine
 10
311.692640687
 20
372.232640687
 30
0.0
 11
309.192640687
 21
372.232640687
 31
0.0
  0
LINE
  5
26C
330
1F
100
AcDbEntity
  8
0
  6
Continuous
 62
     1
100
AcDbLine
 10
314.192640687
 20
372.232640687
 30
0.0
 11
314.192640687
 21
347.232640687
 31
0.0
  0
LINE
  5
26D
330
1F
100
AcDbEntity
  8
0
  6
Continuous
 62
     1
100
AcDbLine
 10
314.192640687
 20
347.232640687
 30
0.0
 11
316.692640687
 21
347.232640687
 31
0.0
  0
LINE
  5
26E
330
1F
100
AcDbEntity
  8
0
  6
Continuous
 62
     1
100
AcDbLine
 10
316.692640687
 20
347.232640687
 30
0.0
 11
316.692640687
 21
372.232640687
 31
0.0
  0
LINE
  5
26F
330
1F
100
AcDbEntity
  8
0
  6
Continuous
 62
     1
100
AcDbLine
 10
316.692640687
 20
372.232640687
 30
0.0
 11
314.192640687
 21
372.232640687
 31
0.0
  0
LINE
  5
270
330
1F
100
AcDbEntity
  8
0
  6
Continuous
 62
     1
100
AcDbLine
 10
319.192640687
 20
372.232640687
 30
0.0
 11
319.192640687
 21
347.232640687
 31
0.0
  0
LINE
  5
271
330
1F
100
AcDbEntity
  8
0
  6
Continuous
 62
     1
100
AcDbLine
 10
319.192640687
 20
347.232640687
 30
0.0
 11
321.692640687
 21
347.232640687
 31
0.0
  0
LINE
  5
272
330
1F
100
AcDbEntity
  8
0
  6
Continuous
 62
     1
100
AcDbLine
 10
321.692640687
 20
347.232640687
 30
0.0
 11
321.692640687
 21
372.232640687
 31
0.0
  0
LINE
  5
273
330
1F
100
AcDbEntity
  8
0
  6
Continuous
 62
     1
100
AcDbLine
 10
321.692640687
 20
372.232640687
 30
0.0
 11
319.192640687
 21
372.232640687
 31
0.0
  0
LINE
  5
274
330
1F
100
AcDbEntity
  8
0
  6
Continuous
 62
     1
100
AcDbLine
 10
324.192640687
 20
372.232640687
 30
0.0
 11
324.192640687
 21
347.232640687
 31
0.0
  0
LINE
  5
275
330
1F
100
AcDbEntity
  8
0
  6
Continuous
 62
     1
100
AcDbLine
 10
324.192640687
 20
347.232640687
 30
0.0
 11
326.692640687
 21
347.232640687
 31
0.0
  0
LINE
  5
276
330
1F
100
AcDbEntity
  8
0
  6
Continuous
 62
     1
100
AcDbLine
 10
326.692640687
 20
347.232640687
 30
0.0
 11
326.692640687
 21
372.232640687
 31
0.0
  0
LINE
  5
277
330
1F
100
AcDbEntity
  8
0
  6
Continuous
 62
     1
100
AcDbLine
 10
326.692640687
 20
372.232640687
 30
0.0
 11
324.192640687
 21
372.232640687
 31
0.0
  0
LINE
  5
278
330
1F
100
AcDbEntity
  8
0
  6
Continuous
 62
     1
100
AcDbLine
 10
402.942640687
 20
370.832640687
 30
0.0
 11
402.942640687
 21
300.232640687
 31
0.0
  0
LINE
  5
279
330
1F
100
AcDbEntity
  8
0
  6
Continuous
 62
     2
100
AcDbLine
 10
603.992640687
 20
290.732640687
 30
0.0
 11
603.992640687
 21
291.732640687
 31
0.0
  0
LINE
  5
27A
330
1F
100
AcDbEntity
  8
0
  6
Continuous
 62
     2
100
AcDbLine
 10
603.992640687
 20
291.732640687
 30
0.0
 11
518.992640687
 21
291.732640687
 31
0.0
  0
LINE
  5
27B
330
1F
100
AcDbEntity
  8
0
  6
Continuous
 62
     2
100
AcDbLine
 10
518.992640687
 20
291.732640687
 30
0.0
 11
518.992640687
 21
290.732640687
 31
0.0
  0
LINE
  5
27C
330
1F
100
AcDbEntity
  8
0
  6
Continuous
 62
     2
100
AcDbLine
 10
518.992640687
 20
290.732640687
 30
0.0
 11
603.992640687
 21
290.732640687
 31
0.0
  0
LINE
  5
27D
330
1F
100
AcDbEntity
  8
0
  6
Continuous
 62
     2
100
AcDbLine
 10
603.992640687
 20
290.732640687
 30
0.0
 11
603.992640687
 21
398.732640687
 31
0.0
  0
LINE
  5
27E
330
1F
100
AcDbEntity
  8
0
  6
Continuous
 62
     2
100
AcDbLine
 10
603.992640687
 20
398.732640687
 30
0.0
 11
518.992640687
 21
398.732640687
 31
0.0
  0
LINE
  5
27F
330
1F
100
AcDbEntity
  8
0
  6
Continuous
 62
     2
100
AcDbLine
 10
518.992640687
 20
398.732640687
 30
0.0
 11
518.992640687
 21
291.732640687
 31
0.0
  0
LINE
  5
280
330
1F
100
AcDbEntity
  8
0
  6
Continuous
 62
     2
100
AcDbLine
 10
518.992640687
 20
291.732640687
 30
0.0
 11
519.992640687
 21
291.732640687
 31
0.0
  0
LINE
  5
281
330
1F
100
AcDbEntity
  8
0
  6
Continuous
 62
     2
100
AcDbLine
 10
519.992640687
 20
291.732640687
 30
0.0
 11
519.992640687
 21
397.732640687
 31
0.0
  0
LINE
  5
282
330
1F
100
AcDbEntity
  8
0
  6
Continuous
 62
     2
100
AcDbLine
 10
519.992640687
 20
397.732640687
 30
0.0
 11
603.992640687
 21
397.732640687
 31
0.0
  0
LINE
  5
283
330
1F
100
AcDbEntity
  8
0
  6
Continuous
 62
     2
100
AcDbLine
 10
603.992640687
 20
398.732640687
 30
0.0
 11
623.992640687
 21
398.732640687
 31
0.0
  0
LINE
  5
284
330
1F
100
AcDbEntity
  8
0
  6
Continuous
 62
     2
100
AcDbLine
 10
623.992640687
 20
398.732640687
 30
0.0
 11
623.992640687
 21
291.732640687
 31
0.0
  0
LINE
  5
285
330
1F
100
AcDbEntity
  8
0
  6
Continuous
 62
     2
100
AcDbLine
 10
623.992640687
 20
291.732640687
 30
0.0
 11
603.992640687
 21
291.732640687
 31
0.0
  0
CIRCLE
  5
286
330
1F
100
AcDbEntity
  8
0
  6
Continuous
 62
     1
100
AcDbCircle
 10
532.492640687
 20
317.732640687
 30
0.0
 40
4.0
  0
ARC
  5
287
330
1F
100
AcDbEntity
  8
0
  6
Continuous
 62
     1
100
AcDbCircle
 10
532.492640687
 20
317.732640687
 30
0.0
 40
4.75
100
AcDbArc
 50
251.328
 51
288.627
  0
ARC
  5
288
330
1F
100
AcDbEntity
  8
0
  6
Continuous
 62
     1
100
AcDbCircle
 10
532.492640687
 20
306.732640687
 30
0.0
 40
4.75
100
AcDbArc
 50
71.373
 51
108.672
  0
LINE
  5
289
330
1F
100
AcDbEntity
  8
0
  6
Continuous
 62
     1
100
AcDbLine
 10
534.009818708
 20
311.233826181
 30
0.0
 11
540.992640687
 21
311.232640687
 31
0.0
  0
LINE
  5
28A
330
1F
100
AcDbEntity
  8
0
  6
Continuous
 62
     1
100
AcDbLine
 10
540.992640687
 20
311.232640687
 30
0.0
 11
540.992640687
 21
313.232640687
 31
0.0
  0
LINE
  5
28B
330
1F
100
AcDbEntity
  8
0
  6
Continuous
 62
     1
100
AcDbLine
 10
540.992640687
 20
313.232640687
 30
0.0
 11
534.01333132
 21
313.232640687
 31
0.0
  0
LINE
  5
28C
330
1F
100
AcDbEntity
  8
0
  6
Continuous
 62
     1
100
AcDbLine
 10
530.971927911
 20
311.232633204
 30
0.0
 11
523.992640687
 21
311.232640687
 31
0.0
  0
LINE
  5
28D
330
1F
100
AcDbEntity
  8
0
  6
Continuous
 62
     1
100
AcDbLine
 10
523.992640687
 20
311.232640687
 30
0.0
 11
523.992640687
 21
313.232640687
 31
0.0
  0
LINE
  5
28E
330
1F
100
AcDbEntity
  8
0
  6
Continuous
 62
     1
100
AcDbLine
 10
523.992640687
 20
313.232640687
 30
0.0
 11
530.971950055
 21
313.232640687
 31
0.0
  0
LINE
  5
28F
330
1F
100
AcDbEntity
  8
0
  6
Continuous
 62
     1
100
AcDbLine
 10
538.492640687
 20
313.232640687
 30
0.0
 11
538.492640687
 21
322.232640687
 31
0.0
  0
LINE
  5
290
330
1F
100
AcDbEntity
  8
0
  6
Continuous
 62
     1
100
AcDbLine
 10
526.492640687
 20
313.232640687
 30
0.0
 11
526.492640687
 21
322.232640687
 31
0.0
  0
LINE
  5
291
330
1F
100
AcDbEntity
  8
0
  6
Continuous
 62
     1
100
AcDbLine
 10
523.992640687
 20
313.232640687
 30
0.0
 11
523.992640687
 21
322.232640687
 31
0.0
  0
LINE
  5
292
330
1F
100
AcDbEntity
  8
0
  6
Continuous
 62
     1
100
AcDbLine
 10
540.992640687
 20
313.232640687
 30
0.0
 11
540.992640687
 21
322.232640687
 31
0.0
  0
LINE
  5
293
330
1F
100
AcDbEntity
  8
0
  6
Continuous
 62
     1
100
AcDbLine
 10
530.371320344
 20
315.611320344
 30
0.0
 11
534.613961031
 21
319.853961031
 31
0.0
  0
LINE
  5
294
330
1F
100
AcDbEntity
  8
0
  6
Continuous
 62
     1
100
AcDbLine
 10
534.613961031
 20
315.611320344
 30
0.0
 11
530.371320344
 21
319.853961031
 31
0.0
  0
CIRCLE
  5
295
330
1F
100
AcDbEntity
  8
0
  6
Continuous
 62
     1
100
AcDbCircle
 10
532.492640687
 20
306.732640687
 30
0.0
 40
4.0
  0
LINE
  5
296
330
1F
100
AcDbEntity
  8
0
  6
Continuous
 62
     1
100
AcDbLine
 10
538.492640687
 20
302.232640687
 30
0.0
 11
538.492640687
 21
311.232640687
 31
0.0
  0
LINE
  5
297
330
1F
100
AcDbEntity
  8
0
  6
Continuous
 62
     1
100
AcDbLine
 10
526.492640687
 20
302.232640687
 30
0.0
 11
526.492640687
 21
311.232640687
 31
0.0
  0
LINE
  5
298
330
1F
100
AcDbEntity
  8
0
  6
Continuous
 62
     1
100
AcDbLine
 10
523.992640687
 20
302.232640687
 30
0.0
 11
523.992640687
 21
311.232640687
 31
0.0
  0
LINE
  5
299
330
1F
100
AcDbEntity
  8
0
  6
Continuous
 62
     1
100
AcDbLine
 10
540.992640687
 20
302.232640687
 30
0.0
 11
540.992640687
 21
311.232640687
 31
0.0
  0
LINE
  5
29A
330
1F
100
AcDbEntity
  8
0
  6
Continuous
 62
     1
100
AcDbLine
 10
530.371320344
 20
304.611320344
 30
0.0
 11
534.613961031
 21
308.853961031
 31
0.0
  0
LINE
  5
29B
330
1F
100
AcDbEntity
  8
0
  6
Continuous
 62
     1
100
AcDbLine
 10
534.613961031
 20
304.611320344
 30
0.0
 11
530.371320344
 21
308.853961031
 31
0.0
  0
LINE
  5
29C
330
1F
100
AcDbEntity
  8
0
  6
Continuous
 62
     1
100
AcDbLine
 10
523.992640687
 20
302.232640687
 30
0.0
 11
540.992640687
 21
302.232640687
 31
0.0
  0
CIRCLE
  5
29D
330
1F
100
AcDbEntity
  8
0
  6
Continuous
 62
     1
100
AcDbCircle
 10
532.492640687
 20
328.732640687
 30
0.0
 40
4.0
  0
ARC
  5
29E
330
1F
100
AcDbEntity
  8
0
  6
Continuous
 62
     1
100
AcDbCircle
 10
532.492640687
 20
328.732640687
 30
0.0
 40
4.75
100
AcDbArc
 50
251.328
 51
288.627
  0
ARC
  5
29F
330
1F
100
AcDbEntity
  8
0
  6
Continuous
 62
     1
100
AcDbCircle
 10
532.492640687
 20
317.732640687
 30
0.0
 40
4.75
100
AcDbArc
 50
71.373
 51
108.672
  0
LINE
  5
2A0
330
1F
100
AcDbEntity
  8
0
  6
Continuous
 62
     1
100
AcDbLine
 10
534.009818708
 20
322.233826181
 30
0.0
 11
540.992640687
 21
322.232640687
 31
0.0
  0
LINE
  5
2A1
330
1F
100
AcDbEntity
  8
0
  6
Continuous
 62
     1
100
AcDbLine
 10
540.992640687
 20
322.232640687
 30
0.0
 11
540.992640687
 21
324.232640687
 31
0.0
  0
LINE
  5
2A2
330
1F
100
AcDbEntity
  8
0
  6
Continuous
 62
     1
100
AcDbLine
 10
540.992640687
 20
324.232640687
 30
0.0
 11
534.01333132
 21
324.232640687
 31
0.0
  0
LINE
  5
2A3
330
1F
100
AcDbEntity
  8
0
  6
Continuous
 62
     1
100
AcDbLine
 10
530.971927911
 20
322.232633204
 30
0.0
 11
523.992640687
 21
322.232640687
 31
0.0
  0
LINE
  5
2A4
330
1F
100
AcDbEntity
  8
0
  6
Continuous
 62
     1
100
AcDbLine
 10
523.992640687
 20
322.232640687
 30
0.0
 11
523.992640687
 21
324.232640687
 31
0.0
  0
LINE
  5
2A5
330
1F
100
AcDbEntity
  8
0
  6
Continuous
 62
     1
100
AcDbLine
 10
523.992640687
 20
324.232640687
 30
0.0
 11
530.971950055
 21
324.232640687
 31
0.0
  0
LINE
  5
2A6
330
1F
100
AcDbEntity
  8
0
  6
Continuous
 62
     1
100
AcDbLine
 10
538.492640687
 20
324.232640687
 30
0.0
 11
538.492640687
 21
333.232640687
 31
0.0
  0
LINE
  5
2A7
330
1F
100
AcDbEntity
  8
0
  6
Continuous
 62
     1
100
AcDbLine
 10
526.492640687
 20
324.232640687
 30
0.0
 11
526.492640687
 21
333.232640687
 31
0.0
  0
LINE
  5
2A8
330
1F
100
AcDbEntity
  8
0
  6
Continuous
 62
     1
100
AcDbLine
 10
523.992640687
 20
324.232640687
 30
0.0
 11
523.992640687
 21
333.232640687
 31
0.0
  0
LINE
  5
2A9
330
1F
100
AcDbEntity
  8
0
  6
Continuous
 62
     1
100
AcDbLine
 10
540.992640687
 20
324.232640687
 30
0.0
 11
540.992640687
 21
333.232640687
 31
0.0
  0
LINE
  5
2AA
330
1F
100
AcDbEntity
  8
0
  6
Continuous
 62
     1
100
AcDbLine
 10
530.371320344
 20
326.611320344
 30
0.0
 11
534.613961031
 21
330.853961031
 31
0.0
  0
LINE
  5
2AB
330
1F
100
AcDbEntity
  8
0
  6
Continuous
 62
     1
100
AcDbLine
 10
534.613961031
 20
326.611320344
 30
0.0
 11
530.371320344
 21
330.853961031
 31
0.0
  0
LINE
  5
2AC
330
1F
100
AcDbEntity
  8
0
  6
Continuous
 62
     1
100
AcDbLine
 10
538.492640687
 20
313.232640687
 30
0.0
 11
538.492640687
 21
322.232640687
 31
0.0
  0
LINE
  5
2AD
330
1F
100
AcDbEntity
  8
0
  6
Continuous
 62
     1
100
AcDbLine
 10
526.492640687
 20
313.232640687
 30
0.0
 11
526.492640687
 21
322.232640687
 31
0.0
  0
LINE
  5
2AE
330
1F
100
AcDbEntity
  8
0
  6
Continuous
 62
     1
100
AcDbLine
 10
523.992640687
 20
313.232640687
 30
0.0
 11
523.992640687
 21
322.232640687
 31
0.0
  0
LINE
  5
2AF
330
1F
100
AcDbEntity
  8
0
  6
Continuous
 62
     1
100
AcDbLine
 10
540.992640687
 20
313.232640687
 30
0.0
 11
540.992640687
 21
322.232640687
 31
0.0
  0
LINE
  5
2B0
330
1F
100
AcDbEntity
  8
0
  6
Continuous
 62
     1
100
AcDbLine
 10
538.492640687
 20
324.232640687
 30
0.0
 11
538.492640687
 21
333.232640687
 31
0.0
  0
LINE
  5
2B1
330
1F
100
AcDbEntity
  8
0
  6
Continuous
 62
     1
100
AcDbLine
 10
526.492640687
 20
324.232640687
 30
0.0
 11
526.492640687
 21
333.232640687
 31
0.0
  0
LINE
  5
2B2
330
1F
100
AcDbEntity
  8
0
  6
Continuous
 62
     1
100
AcDbLine
 10
523.992640687
 20
324.232640687
 30
0.0
 11
523.992640687
 21
333.232640687
 31
0.0
  0
LINE
  5
2B3
330
1F
100
AcDbEntity
  8
0
  6
Continuous
 62
     1
100
AcDbLine
 10
540.992640687
 20
324.232640687
 30
0.0
 11
540.992640687
 21
333.232640687
 31
0.0
  0
CIRCLE
  5
2B4
330
1F
100
AcDbEntity
  8
0
  6
Continuous
 62
     1
100
AcDbCircle
 10
532.492640687
 20
339.732640687
 30
0.0
 40
4.0
  0
ARC
  5
2B5
330
1F
100
AcDbEntity
  8
0
  6
Continuous
 62
     1
100
AcDbCircle
 10
532.492640687
 20
339.732640687
 30
0.0
 40
4.75
100
AcDbArc
 50
251.328
 51
288.627
  0
ARC
  5
2B6
330
1F
100
AcDbEntity
  8
0
  6
Continuous
 62
     1
100
AcDbCircle
 10
532.492640687
 20
328.732640687
 30
0.0
 40
4.75
100
AcDbArc
 50
71.373
 51
108.672
  0
LINE
  5
2B7
330
1F
100
AcDbEntity
  8
0
  6
Continuous
 62
     1
100
AcDbLine
 10
534.009818708
 20
333.233826181
 30
0.0
 11
540.992640687
 21
333.232640687
 31
0.0
  0
LINE
  5
2B8
330
1F
100
AcDbEntity
  8
0
  6
Continuous
 62
     1
100
AcDbLine
 10
540.992640687
 20
333.232640687
 30
0.0
 11
540.992640687
 21
335.232640687
 31
0.0
  0
LINE
  5
2B9
330
1F
100
AcDbEntity
  8
0
  6
Continuous
 62
     1
100
AcDbLine
 10
540.992640687
 20
335.232640687
 30
0.0
 11
534.01333132
 21
335.232640687
 31
0.0
  0
LINE
  5
2BA
330
1F
100
AcDbEntity
  8
0
  6
Continuous
 62
     1
100
AcDbLine
 10
530.971927911
 20
333.232633204
 30
0.0
 11
523.992640687
 21
333.232640687
 31
0.0
  0
LINE
  5
2BB
330
1F
100
AcDbEntity
  8
0
  6
Continuous
 62
     1
100
AcDbLine
 10
523.992640687
 20
333.232640687
 30
0.0
 11
523.992640687
 21
335.232640687
 31
0.0
  0
LINE
  5
2BC
330
1F
100
AcDbEntity
  8
0
  6
Continuous
 62
     1
100
AcDbLine
 10
523.992640687
 20
335.232640687
 30
0.0
 11
530.971950055
 21
335.232640687
 31
0.0
  0
LINE
  5
2BD
330
1F
100
AcDbEntity
  8
0
  6
Continuous
 62
     1
100
AcDbLine
 10
538.492640687
 20
335.232640687
 30
0.0
 11
538.492640687
 21
344.232640687
 31
0.0
  0
LINE
  5
2BE
330
1F
100
AcDbEntity
  8
0
  6
Continuous
 62
     1
100
AcDbLine
 10
526.492640687
 20
335.232640687
 30
0.0
 11
526.492640687
 21
344.232640687
 31
0.0
  0
LINE
  5
2BF
330
1F
100
AcDbEntity
  8
0
  6
Continuous
 62
     1
100
AcDbLine
 10
523.992640687
 20
335.232640687
 30
0.0
 11
523.992640687
 21
344.232640687
 31
0.0
  0
LINE
  5
2C0
330
1F
100
AcDbEntity
  8
0
  6
Continuous
 62
     1
100
AcDbLine
 10
540.992640687
 20
335.232640687
 30
0.0
 11
540.992640687
 21
344.232640687
 31
0.0
  0
LINE
  5
2C1
330
1F
100
AcDbEntity
  8
0
  6
Continuous
 62
     1
100
AcDbLine
 10
530.371320344
 20
337.611320344
 30
0.0
 11
534.613961031
 21
341.853961031
 31
0.0
  0
LINE
  5
2C2
330
1F
100
AcDbEntity
  8
0
  6
Continuous
 62
     1
100
AcDbLine
 10
534.613961031
 20
337.611320344
 30
0.0
 11
530.371320344
 21
341.853961031
 31
0.0
  0
LINE
  5
2C3
330
1F
100
AcDbEntity
  8
0
  6
Continuous
 62
     1
100
AcDbLine
 10
538.492640687
 20
324.232640687
 30
0.0
 11
538.492640687
 21
333.232640687
 31
0.0
  0
LINE
  5
2C4
330
1F
100
AcDbEntity
  8
0
  6
Continuous
 62
     1
100
AcDbLine
 10
526.492640687
 20
324.232640687
 30
0.0
 11
526.492640687
 21
333.232640687
 31
0.0
  0
LINE
  5
2C5
330
1F
100
AcDbEntity
  8
0
  6
Continuous
 62
     1
100
AcDbLine
 10
523.992640687
 20
324.232640687
 30
0.0
 11
523.992640687
 21
333.232640687
 31
0.0
  0
LINE
  5
2C6
330
1F
100
AcDbEntity
  8
0
  6
Continuous
 62
     1
100
AcDbLine
 10
540.992640687
 20
324.232640687
 30
0.0
 11
540.992640687
 21
333.232640687
 31
0.0
  0
LINE
  5
2C7
330
1F
100
AcDbEntity
  8
0
  6
Continuous
 62
     1
100
AcDbLine
 10
538.492640687
 20
335.232640687
 30
0.0
 11
538.492640687
 21
344.232640687
 31
0.0
  0
LINE
  5
2C8
330
1F
100
AcDbEntity
  8
0
  6
Continuous
 62
     1
100
AcDbLine
 10
526.492640687
 20
335.232640687
 30
0.0
 11
526.492640687
 21
344.232640687
 31
0.0
  0
LINE
  5
2C9
330
1F
100
AcDbEntity
  8
0
  6
Continuous
 62
     1
100
AcDbLine
 10
523.992640687
 20
335.232640687
 30
0.0
 11
523.992640687
 21
344.232640687
 31
0.0
  0
LINE
  5
2CA
330
1F
100
AcDbEntity
  8
0
  6
Continuous
 62
     1
100
AcDbLine
 10
540.992640687
 20
335.232640687
 30
0.0
 11
540.992640687
 21
344.232640687
 31
0.0
  0
CIRCLE
  5
2CB
330
1F
100
AcDbEntity
  8
0
  6
Continuous
 62
     1
100
AcDbCircle
 10
532.492640687
 20
350.732640687
 30
0.0
 40
4.0
  0
ARC
  5
2CC
330
1F
100
AcDbEntity
  8
0
  6
Continuous
 62
     1
100
AcDbCircle
 10
532.492640687
 20
350.732640687
 30
0.0
 40
4.75
100
AcDbArc
 50
251.328
 51
288.627
  0
ARC
  5
2CD
330
1F
100
AcDbEntity
  8
0
  6
Continuous
 62
     1
100
AcDbCircle
 10
532.492640687
 20
339.732640687
 30
0.0
 40
4.75
100
AcDbArc
 50
71.373
 51
108.672
  0
LINE
  5
2CE
330
1F
100
AcDbEntity
  8
0
  6
Continuous
 62
     1
100
AcDbLine
 10
534.009818708
 20
344.233826181
 30
0.0
 11
540.992640687
 21
344.232640687
 31
0.0
  0
LINE
  5
2CF
330
1F
100
AcDbEntity
  8
0
  6
Continuous
 62
     1
100
AcDbLine
 10
540.992640687
 20
344.232640687
 30
0.0
 11
540.992640687
 21
346.232640687
 31
0.0
  0
LINE
  5
2D0
330
1F
100
AcDbEntity
  8
0
  6
Continuous
 62
     1
100
AcDbLine
 10
540.992640687
 20
346.232640687
 30
0.0
 11
534.01333132
 21
346.232640687
 31
0.0
  0
LINE
  5
2D1
330
1F
100
AcDbEntity
  8
0
  6
Continuous
 62
     1
100
AcDbLine
 10
530.971927911
 20
344.232633204
 30
0.0
 11
523.992640687
 21
344.232640687
 31
0.0
  0
LINE
  5
2D2
330
1F
100
AcDbEntity
  8
0
  6
Continuous
 62
     1
100
AcDbLine
 10
523.992640687
 20
344.232640687
 30
0.0
 11
523.992640687
 21
346.232640687
 31
0.0
  0
LINE
  5
2D3
330
1F
100
AcDbEntity
  8
0
  6
Continuous
 62
     1
100
AcDbLine
 10
523.992640687
 20
346.232640687
 30
0.0
 11
530.971950055
 21
346.232640687
 31
0.0
  0
LINE
  5
2D4
330
1F
100
AcDbEntity
  8
0
  6
Continuous
 62
     1
100
AcDbLine
 10
538.492640687
 20
346.232640687
 30
0.0
 11
538.492640687
 21
355.232640687
 31
0.0
  0
LINE
  5
2D5
330
1F
100
AcDbEntity
  8
0
  6
Continuous
 62
     1
100
AcDbLine
 10
526.492640687
 20
346.232640687
 30
0.0
 11
526.492640687
 21
355.232640687
 31
0.0
  0
LINE
  5
2D6
330
1F
100
AcDbEntity
  8
0
  6
Continuous
 62
     1
100
AcDbLine
 10
523.992640687
 20
346.232640687
 30
0.0
 11
523.992640687
 21
355.232640687
 31
0.0
  0
LINE
  5
2D7
330
1F
100
AcDbEntity
  8
0
  6
Continuous
 62
     1
100
AcDbLine
 10
540.992640687
 20
346.232640687
 30
0.0
 11
540.992640687
 21
355.232640687
 31
0.0
  0
LINE
  5
2D8
330
1F
100
AcDbEntity
  8
0
  6
Continuous
 62
     1
100
AcDbLine
 10
530.371320344
 20
348.611320344
 30
0.0
 11
534.613961031
 21
352.853961031
 31
0.0
  0
LINE
  5
2D9
330
1F
100
AcDbEntity
  8
0
  6
Continuous
 62
     1
100
AcDbLine
 10
534.613961031
 20
348.611320344
 30
0.0
 11
530.371320344
 21
352.853961031
 31
0.0
  0
LINE
  5
2DA
330
1F
100
AcDbEntity
  8
0
  6
Continuous
 62
     1
100
AcDbLine
 10
538.492640687
 20
335.232640687
 30
0.0
 11
538.492640687
 21
344.232640687
 31
0.0
  0
LINE
  5
2DB
330
1F
100
AcDbEntity
  8
0
  6
Continuous
 62
     1
100
AcDbLine
 10
526.492640687
 20
335.232640687
 30
0.0
 11
526.492640687
 21
344.232640687
 31
0.0
  0
LINE
  5
2DC
330
1F
100
AcDbEntity
  8
0
  6
Continuous
 62
     1
100
AcDbLine
 10
523.992640687
 20
335.232640687
 30
0.0
 11
523.992640687
 21
344.232640687
 31
0.0
  0
LINE
  5
2DD
330
1F
100
AcDbEntity
  8
0
  6
Continuous
 62
     1
100
AcDbLine
 10
540.992640687
 20
335.232640687
 30
0.0
 11
540.992640687
 21
344.232640687
 31
0.0
  0
LINE
  5
2DE
330
1F
100
AcDbEntity
  8
0
  6
Continuous
 62
     1
100
AcDbLine
 10
538.492640687
 20
346.232640687
 30
0.0
 11
538.492640687
 21
355.232640687
 31
0.0
  0
LINE
  5
2DF
330
1F
100
AcDbEntity
  8
0
  6
Continuous
 62
     1
100
AcDbLine
 10
526.492640687
 20
346.232640687
 30
0.0
 11
526.492640687
 21
355.232640687
 31
0.0
  0
LINE
  5
2E0
330
1F
100
AcDbEntity
  8
0
  6
Continuous
 62
     1
100
AcDbLine
 10
523.992640687
 20
346.232640687
 30
0.0
 11
523.992640687
 21
355.232640687
 31
0.0
  0
LINE
  5
2E1
330
1F
100
AcDbEntity
  8
0
  6
Continuous
 62
     1
100
AcDbLine
 10
540.992640687
 20
346.232640687
 30
0.0
 11
540.992640687
 21
355.232640687
 31
0.0
  0
CIRCLE
  5
2E2
330
1F
100
AcDbEntity
  8
0
  6
Continuous
 62
     1
100
AcDbCircle
 10
532.492640687
 20
361.732640687
 30
0.0
 40
4.0
  0
ARC
  5
2E3
330
1F
100
AcDbEntity
  8
0
  6
Continuous
 62
     1
100
AcDbCircle
 10
532.492640687
 20
361.732640687
 30
0.0
 40
4.75
100
AcDbArc
 50
251.328
 51
288.627
  0
ARC
  5
2E4
330
1F
100
AcDbEntity
  8
0
  6
Continuous
 62
     1
100
AcDbCircle
 10
532.492640687
 20
350.732640687
 30
0.0
 40
4.75
100
AcDbArc
 50
71.373
 51
108.672
  0
LINE
  5
2E5
330
1F
100
AcDbEntity
  8
0
  6
Continuous
 62
     1
100
AcDbLine
 10
534.009818708
 20
355.233826181
 30
0.0
 11
540.992640687
 21
355.232640687
 31
0.0
  0
LINE
  5
2E6
330
1F
100
AcDbEntity
  8
0
  6
Continuous
 62
     1
100
AcDbLine
 10
540.992640687
 20
355.232640687
 30
0.0
 11
540.992640687
 21
357.232640687
 31
0.0
  0
LINE
  5
2E7
330
1F
100
AcDbEntity
  8
0
  6
Continuous
 62
     1
100
AcDbLine
 10
540.992640687
 20
357.232640687
 30
0.0
 11
534.01333132
 21
357.232640687
 31
0.0
  0
LINE
  5
2E8
330
1F
100
AcDbEntity
  8
0
  6
Continuous
 62
     1
100
AcDbLine
 10
530.971927911
 20
355.232633204
 30
0.0
 11
523.992640687
 21
355.232640687
 31
0.0
  0
LINE
  5
2E9
330
1F
100
AcDbEntity
  8
0
  6
Continuous
 62
     1
100
AcDbLine
 10
523.992640687
 20
355.232640687
 30
0.0
 11
523.992640687
 21
357.232640687
 31
0.0
  0
LINE
  5
2EA
330
1F
100
AcDbEntity
  8
0
  6
Continuous
 62
     1
100
AcDbLine
 10
523.992640687
 20
357.232640687
 30
0.0
 11
530.971950055
 21
357.232640687
 31
0.0
  0
LINE
  5
2EB
330
1F
100
AcDbEntity
  8
0
  6
Continuous
 62
     1
100
AcDbLine
 10
538.492640687
 20
357.232640687
 30
0.0
 11
538.492640687
 21
366.232640687
 31
0.0
  0
LINE
  5
2EC
330
1F
100
AcDbEntity
  8
0
  6
Continuous
 62
     1
100
AcDbLine
 10
526.492640687
 20
357.232640687
 30
0.0
 11
526.492640687
 21
366.232640687
 31
0.0
  0
LINE
  5
2ED
330
1F
100
AcDbEntity
  8
0
  6
Continuous
 62
     1
100
AcDbLine
 10
523.992640687
 20
357.232640687
 30
0.0
 11
523.992640687
 21
366.232640687
 31
0.0
  0
LINE
  5
2EE
330
1F
100
AcDbEntity
  8
0
  6
Continuous
 62
     1
100
AcDbLine
 10
540.992640687
 20
357.232640687
 30
0.0
 11
540.992640687
 21
366.232640687
 31
0.0
  0
LINE
  5
2EF
330
1F
100
AcDbEntity
  8
0
  6
Continuous
 62
     1
100
AcDbLine
 10
530.371320344
 20
359.611320344
 30
0.0
 11
534.613961031
 21
363.853961031
 31
0.0
  0
LINE
  5
2F0
330
1F
100
AcDbEntity
  8
0
  6
Continuous
 62
     1
100
AcDbLine
 10
534.613961031
 20
359.611320344
 30
0.0
 11
530.371320344
 21
363.853961031
 31
0.0
  0
LINE
  5
2F1
330
1F
100
AcDbEntity
  8
0
  6
Continuous
 62
     1
100
AcDbLine
 10
538.492640687
 20
346.232640687
 30
0.0
 11
538.492640687
 21
355.232640687
 31
0.0
  0
LINE
  5
2F2
330
1F
100
AcDbEntity
  8
0
  6
Continuous
 62
     1
100
AcDbLine
 10
526.492640687
 20
346.232640687
 30
0.0
 11
526.492640687
 21
355.232640687
 31
0.0
  0
LINE
  5
2F3
330
1F
100
AcDbEntity
  8
0
  6
Continuous
 62
     1
100
AcDbLine
 10
523.992640687
 20
346.232640687
 30
0.0
 11
523.992640687
 21
355.232640687
 31
0.0
  0
LINE
  5
2F4
330
1F
100
AcDbEntity
  8
0
  6
Continuous
 62
     1
100
AcDbLine
 10
540.992640687
 20
346.232640687
 30
0.0
 11
540.992640687
 21
355.232640687
 31
0.0
  0
LINE
  5
2F5
330
1F
100
AcDbEntity
  8
0
  6
Continuous
 62
     1
100
AcDbLine
 10
523.992640687
 20
366.232640687
 30
0.0
 11
540.992640687
 21
366.232640687
 31
0.0
  0
ARC
  5
2F6
330
1F
100
AcDbEntity
  8
0
  6
Continuous
 62
     1
100
AcDbCircle
 10
590.492640687
 20
341.032640687
 30
0.0
 40
4.75
100
AcDbArc
 50
251.328
 51
288.627
  0
ARC
  5
2F7
330
1F
100
AcDbEntity
  8
0
  6
Continuous
 62
     1
100
AcDbCircle
 10
590.492640687
 20
330.032640687
 30
0.0
 40
4.75
100
AcDbArc
 50
71.373
 51
108.672
  0
LINE
  5
2F8
330
1F
100
AcDbEntity
  8
0
  6
Continuous
 62
     1
100
AcDbLine
 10
592.009818708
 20
334.533826181
 30
0.0
 11
598.992640687
 21
334.532640687
 31
0.0
  0
LINE
  5
2F9
330
1F
100
AcDbEntity
  8
0
  6
Continuous
 62
     1
100
AcDbLine
 10
598.992640687
 20
334.532640687
 30
0.0
 11
598.992640687
 21
336.532640687
 31
0.0
  0
LINE
  5
2FA
330
1F
100
AcDbEntity
  8
0
  6
Continuous
 62
     1
100
AcDbLine
 10
598.992640687
 20
336.532640687
 30
0.0
 11
592.01333132
 21
336.532640687
 31
0.0
  0
LINE
  5
2FB
330
1F
100
AcDbEntity
  8
0
  6
Continuous
 62
     1
100
AcDbLine
 10
588.971927911
 20
334.532633204
 30
0.0
 11
581.992640687
 21
334.532640687
 31
0.0
  0
LINE
  5
2FC
330
1F
100
AcDbEntity
  8
0
  6
Continuous
 62
     1
100
AcDbLine
 10
581.992640687
 20
334.532640687
 30
0.0
 11
581.992640687
 21
336.532640687
 31
0.0
  0
LINE
  5
2FD
330
1F
100
AcDbEntity
  8
0
  6
Continuous
 62
     1
100
AcDbLine
 10
581.992640687
 20
336.532640687
 30
0.0
 11
588.971950055
 21
336.532640687
 31
0.0
  0
CIRCLE
  5
2FE
330
1F
100
AcDbEntity
  8
0
  6
Continuous
 62
     1
100
AcDbCircle
 10
590.492640687
 20
330.032640687
 30
0.0
 40
4.0
  0
ARC
  5
2FF
330
1F
100
AcDbEntity
  8
0
  6
Continuous
 62
     1
100
AcDbCircle
 10
590.492640687
 20
330.032640687
 30
0.0
 40
4.75
100
AcDbArc
 50
251.328
 51
288.627
  0
ARC
  5
300
330
1F
100
AcDbEntity
  8
0
  6
Continuous
 62
     1
100
AcDbCircle
 10
590.492640687
 20
319.032640687
 30
0.0
 40
4.75
100
AcDbArc
 50
71.373
 51
108.672
  0
LINE
  5
301
330
1F
100
AcDbEntity
  8
0
  6
Continuous
 62
     1
100
AcDbLine
 10
592.009818708
 20
323.533826181
 30
0.0
 11
598.992640687
 21
323.532640687
 31
0.0
  0
LINE
  5
302
330
1F
100
AcDbEntity
  8
0
  6
Continuous
 62
     1
100
AcDbLine
 10
598.992640687
 20
323.532640687
 30
0.0
 11
598.992640687
 21
325.532640687
 31
0.0
  0
LINE
  5
303
330
1F
100
AcDbEntity
  8
0
  6
Continuous
 62
     1
100
AcDbLine
 10
598.992640687
 20
325.532640687
 30
0.0
 11
592.01333132
 21
325.532640687
 31
0.0
  0
LINE
  5
304
330
1F
100
AcDbEntity
  8
0
  6
Continuous
 62
     1
100
AcDbLine
 10
588.971927911
 20
323.532633204
 30
0.0
 11
581.992640687
 21
323.532640687
 31
0.0
  0
LINE
  5
305
330
1F
100
AcDbEntity
  8
0
  6
Continuous
 62
     1
100
AcDbLine
 10
581.992640687
 20
323.532640687
 30
0.0
 11
581.992640687
 21
325.532640687
 31
0.0
  0
LINE
  5
306
330
1F
100
AcDbEntity
  8
0
  6
Continuous
 62
     1
100
AcDbLine
 10
581.992640687
 20
325.532640687
 30
0.0
 11
588.971950055
 21
325.532640687
 31
0.0
  0
LINE
  5
307
330
1F
100
AcDbEntity
  8
0
  6
Continuous
 62
     1
100
AcDbLine
 10
596.492640687
 20
325.532640687
 30
0.0
 11
596.492640687
 21
334.532640687
 31
0.0
  0
LINE
  5
308
330
1F
100
AcDbEntity
  8
0
  6
Continuous
 62
     1
100
AcDbLine
 10
584.492640687
 20
325.532640687
 30
0.0
 11
584.492640687
 21
334.532640687
 31
0.0
  0
LINE
  5
309
330
1F
100
AcDbEntity
  8
0
  6
Continuous
 62
     1
100
AcDbLine
 10
581.992640687
 20
325.532640687
 30
0.0
 11
581.992640687
 21
334.532640687
 31
0.0
  0
LINE
  5
30A
330
1F
100
AcDbEntity
  8
0
  6
Continuous
 62
     1
100
AcDbLine
 10
598.992640687
 20
325.532640687
 30
0.0
 11
598.992640687
 21
334.532640687
 31
0.0
  0
LINE
  5
30B
330
1F
100
AcDbEntity
  8
0
  6
Continuous
 62
     1
100
AcDbLine
 10
588.371320344
 20
327.911320344
 30
0.0
 11
592.613961031
 21
332.153961031
 31
0.0
  0
LINE
  5
30C
330
1F
100
AcDbEntity
  8
0
  6
Continuous
 62
     1
100
AcDbLine
 10
592.613961031
 20
327.911320344
 30
0.0
 11
588.371320344
 21
332.153961031
 31
0.0
  0
CIRCLE
  5
30D
330
1F
100
AcDbEntity
  8
0
  6
Continuous
 62
     1
100
AcDbCircle
 10
590.492640687
 20
319.032640687
 30
0.0
 40
4.0
  0
ARC
  5
30E
330
1F
100
AcDbEntity
  8
0
  6
Continuous
 62
     1
100
AcDbCircle
 10
590.492640687
 20
319.032640687
 30
0.0
 40
4.75
100
AcDbArc
 50
251.328
 51
288.627
  0
ARC
  5
30F
330
1F
100
AcDbEntity
  8
0
  6
Continuous
 62
     1
100
AcDbCircle
 10
590.492640687
 20
308.032640687
 30
0.0
 40
4.75
100
AcDbArc
 50
71.373
 51
108.672
  0
LINE
  5
310
330
1F
100
AcDbEntity
  8
0
  6
Continuous
 62
     1
100
AcDbLine
 10
592.009818708
 20
312.533826181
 30
0.0
 11
598.992640687
 21
312.532640687
 31
0.0
  0
LINE
  5
311
330
1F
100
AcDbEntity
  8
0
  6
Continuous
 62
     1
100
AcDbLine
 10
598.992640687
 20
312.532640687
 30
0.0
 11
598.992640687
 21
314.532640687
 31
0.0
  0
LINE
  5
312
330
1F
100
AcDbEntity
  8
0
  6
Continuous
 62
     1
100
AcDbLine
 10
598.992640687
 20
314.532640687
 30
0.0
 11
592.01333132
 21
314.532640687
 31
0.0
  0
LINE
  5
313
330
1F
100
AcDbEntity
  8
0
  6
Continuous
 62
     1
100
AcDbLine
 10
588.971927911
 20
312.532633204
 30
0.0
 11
581.992640687
 21
312.532640687
 31
0.0
  0
LINE
  5
314
330
1F
100
AcDbEntity
  8
0
  6
Continuous
 62
     1
100
AcDbLine
 10
581.992640687
 20
312.532640687
 30
0.0
 11
581.992640687
 21
314.532640687
 31
0.0
  0
LINE
  5
315
330
1F
100
AcDbEntity
  8
0
  6
Continuous
 62
     1
100
AcDbLine
 10
581.992640687
 20
314.532640687
 30
0.0
 11
588.971950055
 21
314.532640687
 31
0.0
  0
LINE
  5
316
330
1F
100
AcDbEntity
  8
0
  6
Continuous
 62
     1
100
AcDbLine
 10
596.492640687
 20
314.532640687
 30
0.0
 11
596.492640687
 21
323.532640687
 31
0.0
  0
LINE
  5
317
330
1F
100
AcDbEntity
  8
0
  6
Continuous
 62
     1
100
AcDbLine
 10
584.492640687
 20
314.532640687
 30
0.0
 11
584.492640687
 21
323.532640687
 31
0.0
  0
LINE
  5
318
330
1F
100
AcDbEntity
  8
0
  6
Continuous
 62
     1
100
AcDbLine
 10
581.992640687
 20
314.532640687
 30
0.0
 11
581.992640687
 21
323.532640687
 31
0.0
  0
LINE
  5
319
330
1F
100
AcDbEntity
  8
0
  6
Continuous
 62
     1
100
AcDbLine
 10
598.992640687
 20
314.532640687
 30
0.0
 11
598.992640687
 21
323.532640687
 31
0.0
  0
LINE
  5
31A
330
1F
100
AcDbEntity
  8
0
  6
Continuous
 62
     1
100
AcDbLine
 10
588.371320344
 20
316.911320344
 30
0.0
 11
592.613961031
 21
321.153961031
 31
0.0
  0
LINE
  5
31B
330
1F
100
AcDbEntity
  8
0
  6
Continuous
 62
     1
100
AcDbLine
 10
592.613961031
 20
316.911320344
 30
0.0
 11
588.371320344
 21
321.153961031
 31
0.0
  0
CIRCLE
  5
31C
330
1F
100
AcDbEntity
  8
0
  6
Continuous
 62
     1
100
AcDbCircle
 10
590.492640687
 20
308.032640687
 30
0.0
 40
4.0
  0
ARC
  5
31D
330
1F
100
AcDbEntity
  8
0
  6
Continuous
 62
     1
100
AcDbCircle
 10
590.492640687
 20
308.032640687
 30
0.0
 40
4.75
100
AcDbArc
 50
251.328
 51
288.627
  0
ARC
  5
31E
330
1F
100
AcDbEntity
  8
0
  6
Continuous
 62
     1
100
AcDbCircle
 10
590.492640687
 20
297.032640687
 30
0.0
 40
4.75
100
AcDbArc
 50
71.373
 51
108.672
  0
LINE
  5
31F
330
1F
100
AcDbEntity
  8
0
  6
Continuous
 62
     1
100
AcDbLine
 10
592.009818708
 20
301.533826181
 30
0.0
 11
598.992640687
 21
301.532640687
 31
0.0
  0
LINE
  5
320
330
1F
100
AcDbEntity
  8
0
  6
Continuous
 62
     1
100
AcDbLine
 10
598.992640687
 20
301.532640687
 30
0.0
 11
598.992640687
 21
303.532640687
 31
0.0
  0
LINE
  5
321
330
1F
100
AcDbEntity
  8
0
  6
Continuous
 62
     1
100
AcDbLine
 10
598.992640687
 20
303.532640687
 30
0.0
 11
592.01333132
 21
303.532640687
 31
0.0
  0
LINE
  5
322
330
1F
100
AcDbEntity
  8
0
  6
Continuous
 62
     1
100
AcDbLine
 10
588.971927911
 20
301.532633204
 30
0.0
 11
581.992640687
 21
301.532640687
 31
0.0
  0
LINE
  5
323
330
1F
100
AcDbEntity
  8
0
  6
Continuous
 62
     1
100
AcDbLine
 10
581.992640687
 20
301.532640687
 30
0.0
 11
581.992640687
 21
303.532640687
 31
0.0
  0
LINE
  5
324
330
1F
100
AcDbEntity
  8
0
  6
Continuous
 62
     1
100
AcDbLine
 10
581.992640687
 20
303.532640687
 30
0.0
 11
588.971950055
 21
303.532640687
 31
0.0
  0
LINE
  5
325
330
1F
100
AcDbEntity
  8
0
  6
Continuous
 62
     1
100
AcDbLine
 10
596.492640687
 20
303.532640687
 30
0.0
 11
596.492640687
 21
312.532640687
 31
0.0
  0
LINE
  5
326
330
1F
100
AcDbEntity
  8
0
  6
Continuous
 62
     1
100
AcDbLine
 10
584.492640687
 20
303.532640687
 30
0.0
 11
584.492640687
 21
312.532640687
 31
0.0
  0
LINE
  5
327
330
1F
100
AcDbEntity
  8
0
  6
Continuous
 62
     1
100
AcDbLine
 10
581.992640687
 20
303.532640687
 30
0.0
 11
581.992640687
 21
312.532640687
 31
0.0
  0
LINE
  5
328
330
1F
100
AcDbEntity
  8
0
  6
Continuous
 62
     1
100
AcDbLine
 10
598.992640687
 20
303.532640687
 30
0.0
 11
598.992640687
 21
312.532640687
 31
0.0
  0
LINE
  5
329
330
1F
100
AcDbEntity
  8
0
  6
Continuous
 62
     1
100
AcDbLine
 10
588.371320344
 20
305.911320344
 30
0.0
 11
592.613961031
 21
310.153961031
 31
0.0
  0
LINE
  5
32A
330
1F
100
AcDbEntity
  8
0
  6
Continuous
 62
     1
100
AcDbLine
 10
592.613961031
 20
305.911320344
 30
0.0
 11
588.371320344
 21
310.153961031
 31
0.0
  0
LINE
  5
32B
330
1F
100
AcDbEntity
  8
0
  6
Continuous
 62
     1
100
AcDbLine
 10
581.992640687
 20
301.532640687
 30
0.0
 11
581.992640687
 21
300.232640687
 31
0.0
  0
LINE
  5
32C
330
1F
100
AcDbEntity
  8
0
  6
Continuous
 62
     1
100
AcDbLine
 10
581.992640687
 20
300.232640687
 30
0.0
 11
598.992640687
 21
300.232640687
 31
0.0
  0
LINE
  5
32D
330
1F
100
AcDbEntity
  8
0
  6
Continuous
 62
     1
100
AcDbLine
 10
598.992640687
 20
300.232640687
 30
0.0
 11
598.992640687
 21
301.532640687
 31
0.0
  0
CIRCLE
  5
32E
330
1F
100
AcDbEntity
  8
0
  6
Continuous
 62
     1
100
AcDbCircle
 10
590.492640687
 20
363.032640687
 30
0.0
 40
4.0
  0
ARC
  5
32F
330
1F
100
AcDbEntity
  8
0
  6
Continuous
 62
     1
100
AcDbCircle
 10
590.492640687
 20
363.032640687
 30
0.0
 40
4.75
100
AcDbArc
 50
251.328
 51
288.627
  0
ARC
  5
330
330
1F
100
AcDbEntity
  8
0
  6
Continuous
 62
     1
100
AcDbCircle
 10
590.492640687
 20
363.032640687
 30
0.0
 40
4.75
100
AcDbArc
 50
71.373
 51
108.672
  0
ARC
  5
331
330
1F
100
AcDbEntity
  8
0
  6
Continuous
 62
     1
100
AcDbCircle
 10
590.492640687
 20
352.032640687
 30
0.0
 40
4.75
100
AcDbArc
 50
71.373
 51
108.672
  0
ARC
  5
332
330
1F
100
AcDbEntity
  8
0
  6
Continuous
 62
     1
100
AcDbCircle
 10
590.492640687
 20
374.032640687
 30
0.0
 40
4.75
100
AcDbArc
 50
251.328
 51
288.627
  0
LINE
  5
333
330
1F
100
AcDbEntity
  8
0
  6
Continuous
 62
     1
100
AcDbLine
 10
592.009818708
 20
369.531455193
 30
0.0
 11
598.992640687
 21
369.532640687
 31
0.0
  0
LINE
  5
334
330
1F
100
AcDbEntity
  8
0
  6
Continuous
 62
     1
100
AcDbLine
 10
592.009818708
 20
367.533826181
 30
0.0
 11
598.992640687
 21
367.532640687
 31
0.0
  0
LINE
  5
335
330
1F
100
AcDbEntity
  8
0
  6
Continuous
 62
     1
100
AcDbLine
 10
588.971927911
 20
367.532633204
 30
0.0
 11
581.992640687
 21
367.532640687
 31
0.0
  0
LINE
  5
336
330
1F
100
AcDbEntity
  8
0
  6
Continuous
 62
     1
100
AcDbLine
 10
588.971927911
 20
369.53264817
 30
0.0
 11
581.992640687
 21
369.532640687
 31
0.0
  0
LINE
  5
337
330
1F
100
AcDbEntity
  8
0
  6
Continuous
 62
     1
100
AcDbLine
 10
592.009818708
 20
356.533826181
 30
0.0
 11
598.992640687
 21
356.532640687
 31
0.0
  0
LINE
  5
338
330
1F
100
AcDbEntity
  8
0
  6
Continuous
 62
     1
100
AcDbLine
 10
598.992640687
 20
356.532640687
 30
0.0
 11
598.992640687
 21
358.532640687
 31
0.0
  0
LINE
  5
339
330
1F
100
AcDbEntity
  8
0
  6
Continuous
 62
     1
100
AcDbLine
 10
598.992640687
 20
358.532640687
 30
0.0
 11
592.01333132
 21
358.532640687
 31
0.0
  0
LINE
  5
33A
330
1F
100
AcDbEntity
  8
0
  6
Continuous
 62
     1
100
AcDbLine
 10
588.971927911
 20
356.532633204
 30
0.0
 11
581.992640687
 21
356.532640687
 31
0.0
  0
LINE
  5
33B
330
1F
100
AcDbEntity
  8
0
  6
Continuous
 62
     1
100
AcDbLine
 10
581.992640687
 20
356.532640687
 30
0.0
 11
581.992640687
 21
358.532640687
 31
0.0
  0
LINE
  5
33C
330
1F
100
AcDbEntity
  8
0
  6
Continuous
 62
     1
100
AcDbLine
 10
581.992640687
 20
358.532640687
 30
0.0
 11
588.971950055
 21
358.532640687
 31
0.0
  0
LINE
  5
33D
330
1F
100
AcDbEntity
  8
0
  6
Continuous
 62
     1
100
AcDbLine
 10
581.992640687
 20
369.532640687
 30
0.0
 11
581.992640687
 21
370.832640687
 31
0.0
  0
LINE
  5
33E
330
1F
100
AcDbEntity
  8
0
  6
Continuous
 62
     1
100
AcDbLine
 10
581.992640687
 20
370.832640687
 30
0.0
 11
598.992640687
 21
370.832640687
 31
0.0
  0
LINE
  5
33F
330
1F
100
AcDbEntity
  8
0
  6
Continuous
 62
     1
100
AcDbLine
 10
598.992640687
 20
370.832640687
 30
0.0
 11
598.992640687
 21
369.532640687
 31
0.0
  0
LINE
  5
340
330
1F
100
AcDbEntity
  8
0
  6
Continuous
 62
     1
100
AcDbLine
 10
598.992640687
 20
369.532640687
 30
0.0
 11
598.992640687
 21
367.532640687
 31
0.0
  0
LINE
  5
341
330
1F
100
AcDbEntity
  8
0
  6
Continuous
 62
     1
100
AcDbLine
 10
581.992640687
 20
369.532640687
 30
0.0
 11
581.992640687
 21
367.532640687
 31
0.0
  0
LINE
  5
342
330
1F
100
AcDbEntity
  8
0
  6
Continuous
 62
     1
100
AcDbLine
 10
596.492640687
 20
358.532640687
 30
0.0
 11
596.492640687
 21
367.532640687
 31
0.0
  0
LINE
  5
343
330
1F
100
AcDbEntity
  8
0
  6
Continuous
 62
     1
100
AcDbLine
 10
584.492640687
 20
358.532640687
 30
0.0
 11
584.492640687
 21
367.532640687
 31
0.0
  0
LINE
  5
344
330
1F
100
AcDbEntity
  8
0
  6
Continuous
 62
     1
100
AcDbLine
 10
581.992640687
 20
358.532640687
 30
0.0
 11
581.992640687
 21
367.532640687
 31
0.0
  0
LINE
  5
345
330
1F
100
AcDbEntity
  8
0
  6
Continuous
 62
     1
100
AcDbLine
 10
598.992640687
 20
358.532640687
 30
0.0
 11
598.992640687
 21
367.532640687
 31
0.0
  0
LINE
  5
346
330
1F
100
AcDbEntity
  8
0
  6
Continuous
 62
     1
100
AcDbLine
 10
588.371320344
 20
360.911320344
 30
0.0
 11
592.613961031
 21
365.153961031
 31
0.0
  0
LINE
  5
347
330
1F
100
AcDbEntity
  8
0
  6
Continuous
 62
     1
100
AcDbLine
 10
592.613961031
 20
360.911320344
 30
0.0
 11
588.371320344
 21
365.153961031
 31
0.0
  0
CIRCLE
  5
348
330
1F
100
AcDbEntity
  8
0
  6
Continuous
 62
     1
100
AcDbCircle
 10
590.492640687
 20
352.032640687
 30
0.0
 40
4.0
  0
ARC
  5
349
330
1F
100
AcDbEntity
  8
0
  6
Continuous
 62
     1
100
AcDbCircle
 10
590.492640687
 20
352.032640687
 30
0.0
 40
4.75
100
AcDbArc
 50
251.328
 51
288.627
  0
ARC
  5
34A
330
1F
100
AcDbEntity
  8
0
  6
Continuous
 62
     1
100
AcDbCircle
 10
590.492640687
 20
341.032640687
 30
0.0
 40
4.75
100
AcDbArc
 50
71.373
 51
108.672
  0
LINE
  5
34B
330
1F
100
AcDbEntity
  8
0
  6
Continuous
 62
     1
100
AcDbLine
 10
592.009818708
 20
345.533826181
 30
0.0
 11
598.992640687
 21
345.532640687
 31
0.0
  0
LINE
  5
34C
330
1F
100
AcDbEntity
  8
0
  6
Continuous
 62
     1
100
AcDbLine
 10
598.992640687
 20
345.532640687
 30
0.0
 11
598.992640687
 21
347.532640687
 31
0.0
  0
LINE
  5
34D
330
1F
100
AcDbEntity
  8
0
  6
Continuous
 62
     1
100
AcDbLine
 10
598.992640687
 20
347.532640687
 30
0.0
 11
592.01333132
 21
347.532640687
 31
0.0
  0
LINE
  5
34E
330
1F
100
AcDbEntity
  8
0
  6
Continuous
 62
     1
100
AcDbLine
 10
588.971927911
 20
345.532633204
 30
0.0
 11
581.992640687
 21
345.532640687
 31
0.0
  0
LINE
  5
34F
330
1F
100
AcDbEntity
  8
0
  6
Continuous
 62
     1
100
AcDbLine
 10
581.992640687
 20
345.532640687
 30
0.0
 11
581.992640687
 21
347.532640687
 31
0.0
  0
LINE
  5
350
330
1F
100
AcDbEntity
  8
0
  6
Continuous
 62
     1
100
AcDbLine
 10
581.992640687
 20
347.532640687
 30
0.0
 11
588.971950055
 21
347.532640687
 31
0.0
  0
LINE
  5
351
330
1F
100
AcDbEntity
  8
0
  6
Continuous
 62
     1
100
AcDbLine
 10
596.492640687
 20
347.532640687
 30
0.0
 11
596.492640687
 21
356.532640687
 31
0.0
  0
LINE
  5
352
330
1F
100
AcDbEntity
  8
0
  6
Continuous
 62
     1
100
AcDbLine
 10
584.492640687
 20
347.532640687
 30
0.0
 11
584.492640687
 21
356.532640687
 31
0.0
  0
LINE
  5
353
330
1F
100
AcDbEntity
  8
0
  6
Continuous
 62
     1
100
AcDbLine
 10
581.992640687
 20
347.532640687
 30
0.0
 11
581.992640687
 21
356.532640687
 31
0.0
  0
LINE
  5
354
330
1F
100
AcDbEntity
  8
0
  6
Continuous
 62
     1
100
AcDbLine
 10
598.992640687
 20
347.532640687
 30
0.0
 11
598.992640687
 21
356.532640687
 31
0.0
  0
LINE
  5
355
330
1F
100
AcDbEntity
  8
0
  6
Continuous
 62
     1
100
AcDbLine
 10
588.371320344
 20
349.911320344
 30
0.0
 11
592.613961031
 21
354.153961031
 31
0.0
  0
LINE
  5
356
330
1F
100
AcDbEntity
  8
0
  6
Continuous
 62
     1
100
AcDbLine
 10
592.613961031
 20
349.911320344
 30
0.0
 11
588.371320344
 21
354.153961031
 31
0.0
  0
CIRCLE
  5
357
330
1F
100
AcDbEntity
  8
0
  6
Continuous
 62
     1
100
AcDbCircle
 10
590.492640687
 20
341.032640687
 30
0.0
 40
4.0
  0
LINE
  5
358
330
1F
100
AcDbEntity
  8
0
  6
Continuous
 62
     1
100
AcDbLine
 10
596.492640687
 20
336.532640687
 30
0.0
 11
596.492640687
 21
345.532640687
 31
0.0
  0
LINE
  5
359
330
1F
100
AcDbEntity
  8
0
  6
Continuous
 62
     1
100
AcDbLine
 10
584.492640687
 20
336.532640687
 30
0.0
 11
584.492640687
 21
345.532640687
 31
0.0
  0
LINE
  5
35A
330
1F
100
AcDbEntity
  8
0
  6
Continuous
 62
     1
100
AcDbLine
 10
581.992640687
 20
336.532640687
 30
0.0
 11
581.992640687
 21
345.532640687
 31
0.0
  0
LINE
  5
35B
330
1F
100
AcDbEntity
  8
0
  6
Continuous
 62
     1
100
AcDbLine
 10
598.992640687
 20
336.532640687
 30
0.0
 11
598.992640687
 21
345.532640687
 31
0.0
  0
LINE
  5
35C
330
1F
100
AcDbEntity
  8
0
  6
Continuous
 62
     1
100
AcDbLine
 10
588.371320344
 20
338.911320344
 30
0.0
 11
592.613961031
 21
343.153961031
 31
0.0
  0
LINE
  5
35D
330
1F
100
AcDbEntity
  8
0
  6
Continuous
 62
     1
100
AcDbLine
 10
592.613961031
 20
338.911320344
 30
0.0
 11
588.371320344
 21
343.153961031
 31
0.0
  0
LINE
  5
35E
330
1F
100
AcDbEntity
  8
0
  6
Continuous
 62
     1
100
AcDbLine
 10
592.613961031
 20
304.641475696
 30
0.0
 11
593.095140769
 21
299.664682947
 31
0.0
  0
LINE
  5
35F
330
1F
100
AcDbEntity
  8
0
  6
Continuous
 62
     1
100
AcDbLine
 10
592.613961031
 20
304.641475696
 30
0.0
 11
595.519071282
 21
300.572036615
 31
0.0
  0
LWPOLYLINE
  5
361
330
1F
100
AcDbEntity
  8
0
  6
Continuous
 62
     1
100
AcDbPolyline
 90
     3
 70
   128
 43
0.0
 10
592.613961031
 20
304.641475696
 10
603.113961031
 20
276.591475696
 10
641.813961031
 20
276.591475696
  0
CIRCLE
  5
362
330
1F
100
AcDbEntity
  8
0
  6
Continuous
 62
     1
100
AcDbCircle
 10
561.492640687
 20
303.732640687
 30
0.0
 40
4.0
  0
LINE
  5
363
330
1F
100
AcDbEntity
  8
0
  6
Continuous
 62
     1
100
AcDbLine
 10
559.371320344
 20
301.611320344
 30
0.0
 11
563.613961031
 21
305.853961031
 31
0.0
  0
LINE
  5
364
330
1F
100
AcDbEntity
  8
0
  6
Continuous
 62
     1
100
AcDbLine
 10
563.613961031
 20
301.611320344
 30
0.0
 11
559.371320344
 21
305.853961031
 31
0.0
  0
LINE
  5
365
330
1F
100
AcDbEntity
  8
0
  6
Continuous
 62
     1
100
AcDbLine
 10
561.492640687
 20
299.732640687
 30
0.0
 11
561.195603398
 21
294.741471601
 31
0.0
  0
LINE
  5
366
330
1F
100
AcDbEntity
  8
0
  6
Continuous
 62
     1
100
AcDbLine
 10
561.492640687
 20
299.732640687
 30
0.0
 11
563.730983392
 21
295.261642819
 31
0.0
  0
LWPOLYLINE
  5
368
330
1F
100
AcDbEntity
  8
0
  6
Continuous
 62
     1
100
AcDbPolyline
 90
     3
 70
   128
 43
0.0
 10
561.492640687
 20
299.732640687
 10
568.642640687
 20
264.882640687
 10
613.542640687
 20
264.882640687
  0
TEXT
  5
369
330
1F
100
AcDbEntity
  8
0
  6
Continuous
 62
     1
100
AcDbText
 10
550.6
 20
315.05
 30
0.0
 40
6.0
  1
＋Ｖ
 41
0.333333333
  7
KANJI0
100
AcDbText
  0
TEXT
  5
36B
330
1F
100
AcDbEntity
  8
0
  6
Continuous
 62
     1
100
AcDbText
 10
563.6
 20
349.35
 30
0.0
 40
6.0
  1
＋Ｖ
 41
0.333333333
  7
KANJI0
100
AcDbText
  0
TEXT
  5
36C
330
1F
100
AcDbEntity
  8
0
  6
Continuous
 62
     1
100
AcDbText
 10
563.6
 20
338.35
 30
0.0
 40
6.0
  1
＋Ｖ
 41
0.333333333
  7
KANJI0
100
AcDbText
  0
TEXT
  5
36D
330
1F
100
AcDbEntity
  8
0
  6
Continuous
 62
     1
100
AcDbText
 10
550.6
 20
326.05
 30
0.0
 40
6.0
  1
－Ｖ
 41
0.333333333
  7
KANJI0
100
AcDbText
  0
TEXT
  5
36E
330
1F
100
AcDbEntity
  8
0
  6
Continuous
 62
     1
100
AcDbText
 10
563.6
 20
327.35
 30
0.0
 40
6.0
  1
－Ｖ
 41
0.333333333
  7
KANJI0
100
AcDbText
  0
TEXT
  5
36F
330
1F
100
AcDbEntity
  8
0
  6
Continuous
 62
     1
100
AcDbText
 10
563.6
 20
319.35
 30
0.0
 40
6.0
  1
－Ｖ
 41
0.333333333
  7
KANJI0
100
AcDbText
  0
TEXT
  5
370
330
1F
100
AcDbEntity
  8
0
  6
Continuous
 62
     1
100
AcDbText
 10
550.6
 20
348.05
 30
0.0
 40
6.0
  1
＋ＲＣ
 41
0.333333333
  7
KANJI0
100
AcDbText
  0
TEXT
  5
371
330
1F
100
AcDbEntity
  8
0
  6
Continuous
 62
     1
100
AcDbText
 10
550.6
 20
337.05
 30
0.0
 40
6.0
  1
－ＲＣ
 41
0.333333333
  7
KANJI0
100
AcDbText
  0
TEXT
  5
372
330
1F
100
AcDbEntity
  8
0
  6
Continuous
 62
     1
100
AcDbText
 10
560.6
 20
332.85
 30
0.0
 40
6.0
  1
ＯＵＴ
 41
0.333333333
  7
KANJI0
100
AcDbText
  0
TEXT
  5
373
330
1F
100
AcDbEntity
  8
0
  6
Continuous
 62
     1
100
AcDbText
 10
563.6
 20
310.85
 30
0.0
 40
6.0
  1
－Ｓ
 41
0.333333333
  7
KANJI0
100
AcDbText
  0
TEXT
  5
374
330
1F
100
AcDbEntity
  8
0
  6
Continuous
 62
     1
100
AcDbText
 10
563.6
 20
360.35
 30
0.0
 40
6.0
  1
＋Ｓ
 41
0.333333333
  7
KANJI0
100
AcDbText
  0
LINE
  5
375
330
1F
100
AcDbEntity
  8
0
  6
Continuous
 62
     1
100
AcDbLine
 10
563.4
 20
352.35
 30
0.0
 11
562.2
 21
352.35
 31
0.0
  0
LINE
  5
376
330
1F
100
AcDbEntity
  8
0
  6
Continuous
 62
     1
100
AcDbLine
 10
562.2
 20
352.35
 30
0.0
 11
562.2
 21
340.05
 31
0.0
  0
LINE
  5
377
330
1F
100
AcDbEntity
  8
0
  6
Continuous
 62
     1
100
AcDbLine
 10
562.2
 20
330.35
 30
0.0
 11
562.2
 21
322.35
 31
0.0
  0
LINE
  5
378
330
1F
100
AcDbEntity
  8
0
  6
Continuous
 62
     1
100
AcDbLine
 10
562.2
 20
322.35
 30
0.0
 11
563.4
 21
322.35
 31
0.0
  0
LINE
  5
379
330
1F
100
AcDbEntity
  8
0
  6
Continuous
 62
     1
100
AcDbLine
 10
554.85
 20
318.05
 30
0.0
 11
555.95
 21
318.05
 31
0.0
  0
POINT
  5
37A
330
1F
100
AcDbEntity
  8
0
  6
Continuous
 62
     1
100
AcDbPoint
 10
555.95
 20
318.05
 30
0.0
  0
LINE
  5
37B
330
1F
100
AcDbEntity
  8
0
  6
Continuous
 62
     1
100
AcDbLine
 10
563.4
 20
330.35
 30
0.0
 11
562.2
 21
330.35
 31
0.0
  0
LINE
  5
37C
330
1F
100
AcDbEntity
  8
0
  6
Continuous
 62
     1
100
AcDbLine
 10
562.2
 20
332.7
 30
0.0
 11
562.2
 21
330.35
 31
0.0
  0
LINE
  5
37D
330
1F
100
AcDbEntity
  8
0
  6
Continuous
 62
     1
100
AcDbLine
 10
563.4
 20
341.35
 30
0.0
 11
562.2
 21
341.35
 31
0.0
  0
LINE
  5
37E
330
1F
100
AcDbEntity
  8
0
  6
Continuous
 62
     1
100
AcDbLine
 10
554.85
 20
329.05
 30
0.0
 11
555.95
 21
329.05
 31
0.0
  0
LINE
  5
37F
330
1F
100
AcDbEntity
  8
0
  6
Continuous
 62
     1
100
AcDbLine
 10
555.95
 20
327.05
 30
0.0
 11
555.95
 21
329.05
 31
0.0
  0
LINE
  5
380
330
1F
100
AcDbEntity
  8
0
  6
Continuous
 62
     1
100
AcDbLine
 10
555.95
 20
320.75
 30
0.0
 11
555.95
 21
318.05
 31
0.0
  0
LINE
  5
381
330
1F
100
AcDbEntity
  8
0
  6
Continuous
 62
     1
100
AcDbLine
 10
555.95
 20
326.3
 30
0.0
 11
555.95
 21
327.05
 31
0.0
  0
TEXT
  5
382
330
1F
100
AcDbEntity
  8
0
  6
Continuous
 62
     1
100
AcDbText
 10
557.067178021
 20
310.501185494
 30
0.0
 40
6.0
  1
ＦＧ
 41
0.333333333
  7
KANJI0
100
AcDbText
  0
LINE
  5
383
330
1F
100
AcDbEntity
  8
0
  6
Continuous
 62
     1
100
AcDbLine
 10
568.992640687
 20
309.732640687
 30
0.0
 11
549.992640687
 21
309.732640687
 31
0.0
  0
LINE
  5
384
330
1F
100
AcDbEntity
  8
0
  6
Continuous
 62
     1
100
AcDbLine
 10
549.992640687
 20
309.732640687
 30
0.0
 11
549.992640687
 21
368.732640687
 31
0.0
  0
LINE
  5
385
330
1F
100
AcDbEntity
  8
0
  6
Continuous
 62
     1
100
AcDbLine
 10
549.992640687
 20
368.732640687
 30
0.0
 11
530.992640687
 21
368.732640687
 31
0.0
  0
LINE
  5
386
330
1F
100
AcDbEntity
  8
0
  6
Continuous
 62
     1
100
AcDbLine
 10
530.992640687
 20
368.732640687
 30
0.0
 11
530.992640687
 21
385.732640687
 31
0.0
  0
LINE
  5
387
330
1F
100
AcDbEntity
  8
0
  6
Continuous
 62
     1
100
AcDbLine
 10
530.992640687
 20
385.732640687
 30
0.0
 11
568.992640687
 21
385.732640687
 31
0.0
  0
LINE
  5
388
330
1F
100
AcDbEntity
  8
0
  6
Continuous
 62
     1
100
AcDbLine
 10
568.992640687
 20
309.732640687
 30
0.0
 11
568.992640687
 21
385.732640687
 31
0.0
  0
ARC
  5
389
330
1F
100
AcDbEntity
  8
0
  6
Continuous
 62
     2
100
AcDbCircle
 10
590.992640687
 20
375.232640687
 30
0.0
 40
3.5
100
AcDbArc
 50
0.0
 51
180.0
  0
LINE
  5
38A
330
1F
100
AcDbEntity
  8
0
  6
Continuous
 62
     2
100
AcDbLine
 10
587.492640687
 20
375.232640687
 30
0.0
 11
587.492640687
 21
371.832640687
 31
0.0
  0
LINE
  5
38B
330
1F
100
AcDbEntity
  8
0
  6
Continuous
 62
     2
100
AcDbLine
 10
587.492640687
 20
371.832640687
 30
0.0
 11
581.992640687
 21
371.832640687
 31
0.0
  0
LINE
  5
38C
330
1F
100
AcDbEntity
  8
0
  6
Continuous
 62
     2
100
AcDbLine
 10
581.992640687
 20
371.832640687
 30
0.0
 11
581.992640687
 21
298.832640687
 31
0.0
  0
LINE
  5
38D
330
1F
100
AcDbEntity
  8
0
  6
Continuous
 62
     2
100
AcDbLine
 10
581.992640687
 20
298.832640687
 30
0.0
 11
599.992640687
 21
298.832640687
 31
0.0
  0
LINE
  5
38E
330
1F
100
AcDbEntity
  8
0
  6
Continuous
 62
     2
100
AcDbLine
 10
599.992640687
 20
298.832640687
 30
0.0
 11
599.992640687
 21
371.832640687
 31
0.0
  0
LINE
  5
38F
330
1F
100
AcDbEntity
  8
0
  6
Continuous
 62
     2
100
AcDbLine
 10
599.992640687
 20
371.832640687
 30
0.0
 11
594.492640687
 21
371.832640687
 31
0.0
  0
LINE
  5
390
330
1F
100
AcDbEntity
  8
0
  6
Continuous
 62
     2
100
AcDbLine
 10
594.492640687
 20
375.232640687
 30
0.0
 11
594.492640687
 21
371.832640687
 31
0.0
  0
LINE
  5
391
330
1F
100
AcDbEntity
  8
0
  6
Continuous
 62
     1
100
AcDbLine
 10
587.492640687
 20
371.832640687
 30
0.0
 11
587.492640687
 21
370.832640687
 31
0.0
  0
LINE
  5
392
330
1F
100
AcDbEntity
  8
0
  6
Continuous
 62
     1
100
AcDbLine
 10
587.492640687
 20
370.832640687
 30
0.0
 11
594.492640687
 21
370.832640687
 31
0.0
  0
LINE
  5
393
330
1F
100
AcDbEntity
  8
0
  6
Continuous
 62
     1
100
AcDbLine
 10
594.492640687
 20
370.832640687
 30
0.0
 11
594.492640687
 21
371.832640687
 31
0.0
  0
LINE
  5
394
330
1F
100
AcDbEntity
  8
0
  6
Continuous
 62
     1
100
AcDbLine
 10
593.33571559
 20
377.832640687
 30
0.0
 11
588.649565784
 21
377.832640687
 31
0.0
  0
CIRCLE
  5
395
330
1F
100
AcDbEntity
  8
0
  6
Continuous
 62
     1
100
AcDbCircle
 10
590.992640687
 20
374.332640687
 30
0.0
 40
1.5
  0
LINE
  5
396
330
1F
100
AcDbEntity
  8
0
  6
Continuous
 62
     1
100
AcDbLine
 10
589.931980515
 20
373.271980515
 30
0.0
 11
592.053300859
 21
375.393300859
 31
0.0
  0
LINE
  5
397
330
1F
100
AcDbEntity
  8
0
  6
Continuous
 62
     1
100
AcDbLine
 10
523.992640687
 20
295.732640687
 30
0.0
 11
523.992640687
 21
300.732640687
 31
0.0
  0
LINE
  5
398
330
1F
100
AcDbEntity
  8
0
  6
Continuous
 62
     1
100
AcDbLine
 10
523.992640687
 20
300.732640687
 30
0.0
 11
540.992640687
 21
300.732640687
 31
0.0
  0
LINE
  5
399
330
1F
100
AcDbEntity
  8
0
  6
Continuous
 62
     1
100
AcDbLine
 10
540.992640687
 20
300.732640687
 30
0.0
 11
540.992640687
 21
295.732640687
 31
0.0
  0
LINE
  5
39A
330
1F
100
AcDbEntity
  8
0
  6
Continuous
 62
     1
100
AcDbLine
 10
540.992640687
 20
295.732640687
 30
0.0
 11
523.992640687
 21
295.732640687
 31
0.0
  0
LINE
  5
39B
330
1F
100
AcDbEntity
  8
0
  6
Continuous
 62
     1
100
AcDbLine
 10
531.992640687
 20
380.732640687
 30
0.0
 11
531.992640687
 21
374.732640687
 31
0.0
  0
LINE
  5
39C
330
1F
100
AcDbEntity
  8
0
  6
Continuous
 62
     1
100
AcDbLine
 10
531.992640687
 20
374.732640687
 30
0.0
 11
564.492640687
 21
374.732640687
 31
0.0
  0
LINE
  5
39D
330
1F
100
AcDbEntity
  8
0
  6
Continuous
 62
     1
100
AcDbLine
 10
564.492640687
 20
374.732640687
 30
0.0
 11
564.492640687
 21
380.732640687
 31
0.0
  0
LINE
  5
39E
330
1F
100
AcDbEntity
  8
0
  6
Continuous
 62
     1
100
AcDbLine
 10
564.492640687
 20
380.732640687
 30
0.0
 11
531.992640687
 21
380.732640687
 31
0.0
  0
TEXT
  5
39F
330
1F
100
AcDbEntity
  8
0
  6
Continuous
 62
     1
100
AcDbText
 10
545.992640687
 20
380.732640687
 30
0.0
 40
3.0
  1
ＣＯＮＶＥＲＴＥＲ
 41
0.6
  7
KANJI1
100
AcDbText
  0
TEXT
  5
3A1
330
1F
100
AcDbEntity
  8
0
  6
Continuous
 62
     1
100
AcDbText
 10
531.992640687
 20
380.732640687
 30
0.0
 40
5.0
  1
ＤＣ－ＤＣ
 41
0.36
  7
KANJI2
100
AcDbText
  0
TEXT
  5
3A3
330
1F
100
AcDbEntity
  8
0
  6
Continuous
 62
     1
100
AcDbText
 10
535.192640687
 20
370.732640687
 30
0.0
 40
4.0
  1
ＡＬＰＨＡ　ＳＹＳＴＥＭ　ＩＮＣ．
 41
0.375
  7
KANJI3
100
AcDbText
  0
TEXT
  5
3A5
330
1F
100
AcDbEntity
  8
0
  6
Continuous
 62
     1
100
AcDbText
 10
549.992640687
 20
368.732640687
 30
0.0
 40
1.6
  1
ＭＩＡＤＥ　ＩＮ　ＪＡＰＡＮ
 41
0.4375
  7
KANJI4
100
AcDbText
  0
TEXT
  5
3A7
330
1F
100
AcDbEntity
  8
0
  6
Continuous
 62
     1
100
AcDbText
 10
552.6
 20
320.55
 30
0.0
 40
5.0
  1
ＩＮ
 41
0.4
  7
KANJI5
100
AcDbText
  0
TEXT
  5
3A9
330
1F
100
AcDbEntity
  8
0
  6
Continuous
 62
     1
100
AcDbText
 10
568.5
 20
373.05
 30
0.0
 40
3.0
  1
Ｖ．ＡＤＪ
 50
90.0
 41
0.266666667
  7
KANJI6
100
AcDbText
  0
LINE
  5
3AB
330
1F
100
AcDbEntity
  8
0
  6
Continuous
 62
     1
100
AcDbLine
 10
197.942640687
 20
229.982640687
 30
0.0
 11
197.942640687
 21
243.782640687
 31
0.0
  0
LINE
  5
3AC
330
1F
100
AcDbEntity
  8
0
  6
Continuous
 62
     1
100
AcDbLine
 10
197.942640687
 20
239.782640687
 30
0.0
 11
202.772269819
 21
238.488545462
 31
0.0
  0
LINE
  5
3AD
330
1F
100
AcDbEntity
  8
0
  6
Continuous
 62
     1
100
AcDbLine
 10
197.942640687
 20
239.782640687
 30
0.0
 11
202.772269819
 21
241.076735913
 31
0.0
  0
LWPOLYLINE
  5
3AF
330
1F
100
AcDbEntity
  8
0
  6
Continuous
 62
     1
100
AcDbPolyline
 90
     3
 70
   128
 43
0.0
 10
197.942640687
 20
239.782640687
 10
217.942640687
 20
239.782640687
 10
213.113011556
 20
241.076735913
  0
LINE
  5
3B0
330
1F
100
AcDbEntity
  8
0
  6
Continuous
 62
     1
100
AcDbLine
 10
217.942640687
 20
239.782640687
 30
0.0
 11
213.113011556
 21
238.488545462
 31
0.0
  0
LINE
  5
3B1
330
1F
100
AcDbEntity
  8
0
  6
Continuous
 62
     1
100
AcDbLine
 10
217.942640687
 20
216.982640687
 30
0.0
 11
217.942640687
 21
243.782640687
 31
0.0
  0
TEXT
  5
3B2
330
1F
100
AcDbEntity
  8
0
  6
Continuous
 62
     1
100
AcDbText
 10
202.142640687
 20
241.782640687
 30
0.0
 40
6.0
  1
２０
 41
0.933333333
 51
15.0
  7
KANJI7
100
AcDbText
  0
LINE
  5
3B4
330
1F
100
AcDbEntity
  8
0
  6
Continuous
 62
     1
100
AcDbLine
 10
217.942640687
 20
216.982640687
 30
0.0
 11
217.942640687
 21
243.782640687
 31
0.0
  0
LINE
  5
3B5
330
1F
100
AcDbEntity
  8
0
  6
Continuous
 62
     1
100
AcDbLine
 10
217.942640687
 20
239.782640687
 30
0.0
 11
222.772269819
 21
238.488545462
 31
0.0
  0
LINE
  5
3B6
330
1F
100
AcDbEntity
  8
0
  6
Continuous
 62
     1
100
AcDbLine
 10
217.942640687
 20
239.782640687
 30
0.0
 11
222.772269819
 21
241.076735913
 31
0.0
  0
LWPOLYLINE
  5
3B8
330
1F
100
AcDbEntity
  8
0
  6
Continuous
 62
     1
100
AcDbPolyline
 90
     3
 70
   128
 43
0.0
 10
217.942640687
 20
239.782640687
 10
382.942640687
 20
239.782640687
 10
378.113011556
 20
241.076735913
  0
LINE
  5
3B9
330
1F
100
AcDbEntity
  8
0
  6
Continuous
 62
     1
100
AcDbLine
 10
382.942640687
 20
239.782640687
 30
0.0
 11
378.113011556
 21
238.488545462
 31
0.0
  0
LINE
  5
3BA
330
1F
100
AcDbEntity
  8
0
  6
Continuous
 62
     1
100
AcDbLine
 10
382.942640687
 20
216.982640687
 30
0.0
 11
382.942640687
 21
243.782640687
 31
0.0
  0
TEXT
  5
3BB
330
1F
100
AcDbEntity
  8
0
  6
Continuous
 62
     1
100
AcDbText
 10
291.642640687
 20
241.782640687
 30
0.0
 40
6.0
  1
１６５
 41
0.933333333
 51
15.0
  7
KANJI7
100
AcDbText
  0
LINE
  5
3BC
330
1F
100
AcDbEntity
  8
0
  6
Continuous
 62
     1
100
AcDbLine
 10
197.942640687
 20
229.982640687
 30
0.0
 11
197.942640687
 21
255.582640687
 31
0.0
  0
LINE
  5
3BD
330
1F
100
AcDbEntity
  8
0
  6
Continuous
 62
     1
100
AcDbLine
 10
197.942640687
 20
251.582640687
 30
0.0
 11
202.772269819
 21
250.288545462
 31
0.0
  0
LINE
  5
3BE
330
1F
100
AcDbEntity
  8
0
  6
Continuous
 62
     1
100
AcDbLine
 10
197.942640687
 20
251.582640687
 30
0.0
 11
202.772269819
 21
252.876735913
 31
0.0
  0
LWPOLYLINE
  5
3C0
330
1F
100
AcDbEntity
  8
0
  6
Continuous
 62
     1
100
AcDbPolyline
 90
     3
 70
   128
 43
0.0
 10
197.942640687
 20
251.582640687
 10
402.942640687
 20
251.582640687
 10
398.113011556
 20
252.876735913
  0
LINE
  5
3C1
330
1F
100
AcDbEntity
  8
0
  6
Continuous
 62
     1
100
AcDbLine
 10
402.942640687
 20
251.582640687
 30
0.0
 11
398.113011556
 21
250.288545462
 31
0.0
  0
LINE
  5
3C2
330
1F
100
AcDbEntity
  8
0
  6
Continuous
 62
     1
100
AcDbLine
 10
402.942640687
 20
229.982640687
 30
0.0
 11
402.942640687
 21
255.582640687
 31
0.0
  0
TEXT
  5
3C3
330
1F
100
AcDbEntity
  8
0
  6
Continuous
 62
     1
100
AcDbText
 10
291.642640687
 20
253.582640687
 30
0.0
 40
6.0
  1
２０５
 41
0.933333333
 51
15.0
  7
KANJI7
100
AcDbText
  0
LINE
  5
3C4
330
1F
100
AcDbEntity
  8
0
  6
Continuous
 62
     1
100
AcDbLine
 10
402.942640687
 20
229.982640687
 30
0.0
 11
402.942640687
 21
255.582640687
 31
0.0
  0
LINE
  5
3C5
330
1F
100
AcDbEntity
  8
0
  6
Continuous
 62
     1
100
AcDbLine
 10
195.942640687
 20
227.982640687
 30
0.0
 11
183.242640687
 21
227.982640687
 31
0.0
  0
LINE
  5
3C6
330
1F
100
AcDbEntity
  8
0
  6
Continuous
 62
     1
100
AcDbLine
 10
187.242640687
 20
227.982640687
 30
0.0
 11
185.948545462
 21
223.153011556
 31
0.0
  0
LINE
  5
3C7
330
1F
100
AcDbEntity
  8
0
  6
Continuous
 62
     1
100
AcDbLine
 10
187.242640687
 20
227.982640687
 30
0.0
 11
188.536735913
 21
223.153011556
 31
0.0
  0
LWPOLYLINE
  5
3C9
330
1F
100
AcDbEntity
  8
0
  6
Continuous
 62
     1
100
AcDbPolyline
 90
     3
 70
   128
 43
0.0
 10
187.242640687
 20
227.982640687
 10
187.242640687
 20
214.982640687
 10
188.536735913
 20
219.812269819
  0
LINE
  5
3CA
330
1F
100
AcDbEntity
  8
0
  6
Continuous
 62
     1
100
AcDbLine
 10
187.242640687
 20
214.982640687
 30
0.0
 11
185.948545462
 21
219.812269819
 31
0.0
  0
LINE
  5
3CB
330
1F
100
AcDbEntity
  8
0
  6
Continuous
 62
     1
100
AcDbLine
 10
215.942640687
 20
214.982640687
 30
0.0
 11
183.242640687
 21
214.982640687
 31
0.0
  0
TEXT
  5
3CC
330
1F
100
AcDbEntity
  8
0
  6
Continuous
 62
     1
100
AcDbText
 10
185.242640687
 20
215.682640687
 30
0.0
 40
6.0
  1
１３
 50
90.0
 41
0.933333333
 51
15.0
  7
KANJI7
100
AcDbText
  0
LINE
  5
3CD
330
1F
100
AcDbEntity
  8
0
  6
Continuous
 62
     1
100
AcDbLine
 10
215.942640687
 20
154.982640687
 30
0.0
 11
183.242640687
 21
154.982640687
 31
0.0
  0
LINE
  5
3CE
330
1F
100
AcDbEntity
  8
0
  6
Continuous
 62
     1
100
AcDbLine
 10
187.242640687
 20
154.982640687
 30
0.0
 11
188.536735913
 21
159.812269819
 31
0.0
  0
LINE
  5
3CF
330
1F
100
AcDbEntity
  8
0
  6
Continuous
 62
     1
100
AcDbLine
 10
187.242640687
 20
154.982640687
 30
0.0
 11
185.948545462
 21
159.812269819
 31
0.0
  0
LWPOLYLINE
  5
3D1
330
1F
100
AcDbEntity
  8
0
  6
Continuous
 62
     1
100
AcDbPolyline
 90
     3
 70
   128
 43
0.0
 10
187.242640687
 20
154.982640687
 10
187.242640687
 20
214.982640687
 10
185.948545462
 20
210.153011556
  0
LINE
  5
3D2
330
1F
100
AcDbEntity
  8
0
  6
Continuous
 62
     1
100
AcDbLine
 10
187.242640687
 20
214.982640687
 30
0.0
 11
188.536735913
 21
210.153011556
 31
0.0
  0
LINE
  5
3D3
330
1F
100
AcDbEntity
  8
0
  6
Continuous
 62
     1
100
AcDbLine
 10
215.942640687
 20
214.982640687
 30
0.0
 11
183.242640687
 21
214.982640687
 31
0.0
  0
TEXT
  5
3D4
330
1F
100
AcDbEntity
  8
0
  6
Continuous
 62
     1
100
AcDbText
 10
185.242640687
 20
179.182640687
 30
0.0
 40
6.0
  1
６０
 50
90.0
 41
0.933333333
 51
15.0
  7
KANJI7
100
AcDbText
  0
LINE
  5
3D5
330
1F
100
AcDbEntity
  8
0
  6
Continuous
 62
     1
100
AcDbLine
 10
440.074691495
 20
189.582640687
 30
0.0
 11
502.374691495
 21
189.582640687
 31
0.0
  0
LINE
  5
3D6
330
1F
100
AcDbEntity
  8
0
  6
Continuous
 62
     1
100
AcDbLine
 10
195.942640687
 20
290.732640687
 30
0.0
 11
183.242640687
 21
290.732640687
 31
0.0
  0
LINE
  5
3D7
330
1F
100
AcDbEntity
  8
0
  6
Continuous
 62
     1
100
AcDbLine
 10
187.242640687
 20
290.732640687
 30
0.0
 11
188.536735913
 21
295.562269819
 31
0.0
  0
LINE
  5
3D8
330
1F
100
AcDbEntity
  8
0
  6
Continuous
 62
     1
100
AcDbLine
 10
187.242640687
 20
290.732640687
 30
0.0
 11
185.948545462
 21
295.562269819
 31
0.0
  0
LWPOLYLINE
  5
3DA
330
1F
100
AcDbEntity
  8
0
  6
Continuous
 62
     1
100
AcDbPolyline
 90
     3
 70
   128
 43
0.0
 10
187.242640687
 20
290.732640687
 10
187.242640687
 20
398.732640687
 10
185.948545462
 20
393.903011556
  0
LINE
  5
3DB
330
1F
100
AcDbEntity
  8
0
  6
Continuous
 62
     1
100
AcDbLine
 10
187.242640687
 20
398.732640687
 30
0.0
 11
188.536735913
 21
393.903011556
 31
0.0
  0
LINE
  5
3DC
330
1F
100
AcDbEntity
  8
0
  6
Continuous
 62
     1
100
AcDbLine
 10
195.942640687
 20
398.732640687
 30
0.0
 11
183.242640687
 21
398.732640687
 31
0.0
  0
TEXT
  5
3DD
330
1F
100
AcDbEntity
  8
0
  6
Continuous
 62
     1
100
AcDbText
 10
185.242640687
 20
335.932640687
 30
0.0
 40
6.0
  1
１０８
 50
90.0
 41
0.933333333
 51
15.0
  7
KANJI7
100
AcDbText
  0
LINE
  5
3DE
330
1F
100
AcDbEntity
  8
0
  6
Continuous
 62
     1
100
AcDbLine
 10
518.992640687
 20
400.732640687
 30
0.0
 11
518.992640687
 21
414.782640687
 31
0.0
  0
LINE
  5
3DF
330
1F
100
AcDbEntity
  8
0
  6
Continuous
 62
     1
100
AcDbLine
 10
518.992640687
 20
410.782640687
 30
0.0
 11
523.822269819
 21
409.488545462
 31
0.0
  0
LINE
  5
3E0
330
1F
100
AcDbEntity
  8
0
  6
Continuous
 62
     1
100
AcDbLine
 10
518.992640687
 20
410.782640687
 30
0.0
 11
523.822269819
 21
412.076735913
 31
0.0
  0
LWPOLYLINE
  5
3E2
330
1F
100
AcDbEntity
  8
0
  6
Continuous
 62
     1
100
AcDbPolyline
 90
     3
 70
   128
 43
0.0
 10
518.992640687
 20
410.782640687
 10
623.992640687
 20
410.782640687
 10
619.163011556
 20
412.076735913
  0
LINE
  5
3E3
330
1F
100
AcDbEntity
  8
0
  6
Continuous
 62
     1
100
AcDbLine
 10
623.992640687
 20
410.782640687
 30
0.0
 11
619.163011556
 21
409.488545462
 31
0.0
  0
LINE
  5
3E4
330
1F
100
AcDbEntity
  8
0
  6
Continuous
 62
     1
100
AcDbLine
 10
623.992640687
 20
400.732640687
 30
0.0
 11
623.992640687
 21
414.782640687
 31
0.0
  0
TEXT
  5
3E5
330
1F
100
AcDbEntity
  8
0
  6
Continuous
 62
     1
100
AcDbText
 10
562.692640687
 20
412.782640687
 30
0.0
 40
6.0
  1
１０６
 41
0.933333333
 51
15.0
  7
KANJI7
100
AcDbText
  0
TEXT
  5
3E6
330
1F
100
AcDbEntity
  8
0
  6
Continuous
 62
     1
100
AcDbText
 10
541.5
 20
196.09
 30
0.0
 40
5.0
  1
公差：±１
 41
1.0
  7
KANJI8
100
AcDbText
  0
TEXT
  5
3E8
330
1F
100
AcDbEntity
  8
0
  6
Continuous
 62
     1
100
AcDbText
 10
541.5
 20
188.59
 30
0.0
 40
5.0
  1
単位：ｍｍ
 41
1.0
  7
KANJI8
100
AcDbText
  0
TEXT
  5
3E9
330
1F
100
AcDbEntity
  8
0
  6
Continuous
 62
     1
100
AcDbText
 10
541.5
 20
158.59
 30
0.0
 40
5.0
  1
　　　　　アルミ　－　無処理
 41
1.0
  7
KANJI8
100
AcDbText
  0
TEXT
  5
3EA
330
1F
100
AcDbEntity
  8
0
  6
Continuous
 62
     1
100
AcDbText
 10
541.5
 20
181.09
 30
0.0
 40
5.0
  1
質量：２，２００ｇ
 41
1.0
  7
KANJI8
100
AcDbText
  0
LINE
  5
3EB
330
1F
100
AcDbEntity
  8
0
  6
Continuous
 62
     1
100
AcDbLine
 10
407.942640687
 20
222.982640687
 30
0.0
 11
407.942640687
 21
220.482640687
 31
0.0
  0
LINE
  5
3EC
330
1F
100
AcDbEntity
  8
0
  6
Continuous
 62
     1
100
AcDbLine
 10
407.942640687
 20
220.482640687
 30
0.0
 11
411.942640687
 21
220.482640687
 31
0.0
  0
LINE
  5
3ED
330
1F
100
AcDbEntity
  8
0
  6
Continuous
 62
     1
100
AcDbLine
 10
411.942640687
 20
220.482640687
 30
0.0
 11
411.942640687
 21
208.482640687
 31
0.0
  0
LINE
  5
3EE
330
1F
100
AcDbEntity
  8
0
  6
Continuous
 62
     1
100
AcDbLine
 10
411.942640687
 20
208.482640687
 30
0.0
 11
407.942640687
 21
208.482640687
 31
0.0
  0
LINE
  5
3EF
330
1F
100
AcDbEntity
  8
0
  6
Continuous
 62
     1
100
AcDbLine
 10
407.942640687
 20
208.482640687
 30
0.0
 11
407.942640687
 21
205.982640687
 31
0.0
  0
ARC
  5
3F0
330
1F
100
AcDbEntity
  8
0
  6
Continuous
 62
     1
100
AcDbCircle
 10
419.942640687
 20
221.982640687
 30
0.0
 40
1.0
100
AcDbArc
 50
0.0
 51
180.0
  0
ARC
  5
3F1
330
1F
100
AcDbEntity
  8
0
  6
Continuous
 62
     1
100
AcDbCircle
 10
419.942640687
 20
206.982640687
 30
0.0
 40
1.0
100
AcDbArc
 50
180.0
 51
270.0
  0
ARC
  5
3F2
330
1F
100
AcDbEntity
  8
0
  6
Continuous
 62
     1
100
AcDbCircle
 10
419.942640687
 20
206.982640687
 30
0.0
 40
1.0
100
AcDbArc
 50
270.0
 51
0.0
  0
LINE
  5
3F3
330
1F
100
AcDbEntity
  8
0
  6
Continuous
 62
     1
100
AcDbLine
 10
420.942640687
 20
206.982640687
 30
0.0
 11
420.942640687
 21
221.982640687
 31
0.0
  0
LINE
  5
3F4
330
1F
100
AcDbEntity
  8
0
  6
Continuous
 62
     1
100
AcDbLine
 10
418.942640687
 20
221.982640687
 30
0.0
 11
418.942640687
 21
220.982640687
 31
0.0
  0
LINE
  5
3F5
330
1F
100
AcDbEntity
  8
0
  6
Continuous
 62
     1
100
AcDbLine
 10
418.942640687
 20
220.982640687
 30
0.0
 11
417.942640687
 21
220.982640687
 31
0.0
  0
LINE
  5
3F6
330
1F
100
AcDbEntity
  8
0
  6
Continuous
 62
     1
100
AcDbLine
 10
418.942640687
 20
206.982640687
 30
0.0
 11
418.942640687
 21
207.982640687
 31
0.0
  0
LINE
  5
3F7
330
1F
100
AcDbEntity
  8
0
  6
Continuous
 62
     1
100
AcDbLine
 10
418.942640687
 20
207.982640687
 30
0.0
 11
417.942640687
 21
207.982640687
 31
0.0
  0
LINE
  5
3F8
330
1F
100
AcDbEntity
  8
0
  6
Continuous
 62
     1
100
AcDbLine
 10
417.942640687
 20
220.982640687
 30
0.0
 11
415.942640687
 21
222.982640687
 31
0.0
  0
LINE
  5
3F9
330
1F
100
AcDbEntity
  8
0
  6
Continuous
 62
     1
100
AcDbLine
 10
417.942640687
 20
207.982640687
 30
0.0
 11
415.942640687
 21
205.982640687
 31
0.0
  0
LINE
  5
3FA
330
1F
100
AcDbEntity
  8
0
  6
Continuous
 62
     1
100
AcDbLine
 10
415.942640687
 20
205.982640687
 30
0.0
 11
407.942640687
 21
205.982640687
 31
0.0
  0
LINE
  5
3FB
330
1F
100
AcDbEntity
  8
0
  6
Continuous
 62
     1
100
AcDbLine
 10
415.942640687
 20
222.982640687
 30
0.0
 11
407.942640687
 21
222.982640687
 31
0.0
  0
LINE
  5
3FC
330
1F
100
AcDbEntity
  8
0
  6
Continuous
 62
     1
100
AcDbLine
 10
420.942640687
 20
336.532640687
 30
0.0
 11
420.942640687
 21
334.532640687
 31
0.0
  0
LINE
  5
3FD
330
1F
100
AcDbEntity
  8
0
  6
Continuous
 62
     1
100
AcDbLine
 10
420.942640687
 20
334.532640687
 30
0.0
 11
407.942640687
 21
334.532640687
 31
0.0
  0
LINE
  5
3FE
330
1F
100
AcDbEntity
  8
0
  6
Continuous
 62
     1
100
AcDbLine
 10
407.942640687
 20
334.532640687
 30
0.0
 11
407.942640687
 21
325.532640687
 31
0.0
  0
LINE
  5
3FF
330
1F
100
AcDbEntity
  8
0
  6
Continuous
 62
     1
100
AcDbLine
 10
407.942640687
 20
325.532640687
 30
0.0
 11
420.942640687
 21
325.532640687
 31
0.0
  0
LINE
  5
400
330
1F
100
AcDbEntity
  8
0
  6
Continuous
 62
     1
100
AcDbLine
 10
411.942640687
 20
325.532640687
 30
0.0
 11
411.942640687
 21
334.532640687
 31
0.0
  0
LINE
  5
401
330
1F
100
AcDbEntity
  8
0
  6
Continuous
 62
     1
100
AcDbLine
 10
412.942640687
 20
325.532640687
 30
0.0
 11
412.942640687
 21
334.532640687
 31
0.0
  0
LINE
  5
402
330
1F
100
AcDbEntity
  8
0
  6
Continuous
 62
     1
100
AcDbLine
 10
413.942640687
 20
330.032640687
 30
0.0
 11
412.942640687
 21
329.032640687
 31
0.0
  0
LINE
  5
403
330
1F
100
AcDbEntity
  8
0
  6
Continuous
 62
     1
100
AcDbLine
 10
413.942640687
 20
331.032640687
 30
0.0
 11
412.942640687
 21
330.032640687
 31
0.0
  0
LINE
  5
404
330
1F
100
AcDbEntity
  8
0
  6
Continuous
 62
     1
100
AcDbLine
 10
412.942640687
 20
326.032640687
 30
0.0
 11
413.942640687
 21
326.032640687
 31
0.0
  0
LINE
  5
405
330
1F
100
AcDbEntity
  8
0
  6
Continuous
 62
     1
100
AcDbLine
 10
413.942640687
 20
326.032640687
 30
0.0
 11
413.942640687
 21
334.032640687
 31
0.0
  0
LINE
  5
406
330
1F
100
AcDbEntity
  8
0
  6
Continuous
 62
     1
100
AcDbLine
 10
412.942640687
 20
334.032640687
 30
0.0
 11
413.942640687
 21
334.032640687
 31
0.0
  0
LINE
  5
407
330
1F
100
AcDbEntity
  8
0
  6
Continuous
 62
     1
100
AcDbLine
 10
418.942640687
 20
334.532640687
 30
0.0
 11
418.942640687
 21
336.532640687
 31
0.0
  0
LINE
  5
408
330
1F
100
AcDbEntity
  8
0
  6
Continuous
 62
     1
100
AcDbLine
 10
416.942640687
 20
334.532640687
 30
0.0
 11
416.942640687
 21
336.532640687
 31
0.0
  0
ARC
  5
409
330
1F
100
AcDbEntity
  8
0
  6
Continuous
 62
     1
100
AcDbCircle
 10
413.942640687
 20
328.532640687
 30
0.0
 40
2.5
100
AcDbArc
 50
270.0
 51
0.0
  0
ARC
  5
40A
330
1F
100
AcDbEntity
  8
0
  6
Continuous
 62
     1
100
AcDbCircle
 10
413.942640687
 20
331.532640687
 30
0.0
 40
2.5
100
AcDbArc
 50
0.0
 51
90.0
  0
LINE
  5
40B
330
1F
100
AcDbEntity
  8
0
  6
Continuous
 62
     1
100
AcDbLine
 10
416.442640687
 20
331.532640687
 30
0.0
 11
416.442640687
 21
328.532640687
 31
0.0
  0
LINE
  5
40C
330
1F
100
AcDbEntity
  8
0
  6
Continuous
 62
     1
100
AcDbLine
 10
420.942640687
 20
325.532640687
 30
0.0
 11
420.942640687
 21
323.532640687
 31
0.0
  0
LINE
  5
40D
330
1F
100
AcDbEntity
  8
0
  6
Continuous
 62
     1
100
AcDbLine
 10
420.942640687
 20
323.532640687
 30
0.0
 11
407.942640687
 21
323.532640687
 31
0.0
  0
LINE
  5
40E
330
1F
100
AcDbEntity
  8
0
  6
Continuous
 62
     1
100
AcDbLine
 10
407.942640687
 20
323.532640687
 30
0.0
 11
407.942640687
 21
314.532640687
 31
0.0
  0
LINE
  5
40F
330
1F
100
AcDbEntity
  8
0
  6
Continuous
 62
     1
100
AcDbLine
 10
407.942640687
 20
314.532640687
 30
0.0
 11
420.942640687
 21
314.532640687
 31
0.0
  0
LINE
  5
410
330
1F
100
AcDbEntity
  8
0
  6
Continuous
 62
     1
100
AcDbLine
 10
411.942640687
 20
314.532640687
 30
0.0
 11
411.942640687
 21
323.532640687
 31
0.0
  0
LINE
  5
411
330
1F
100
AcDbEntity
  8
0
  6
Continuous
 62
     1
100
AcDbLine
 10
412.942640687
 20
314.532640687
 30
0.0
 11
412.942640687
 21
323.532640687
 31
0.0
  0
LINE
  5
412
330
1F
100
AcDbEntity
  8
0
  6
Continuous
 62
     1
100
AcDbLine
 10
413.942640687
 20
319.032640687
 30
0.0
 11
412.942640687
 21
318.032640687
 31
0.0
  0
LINE
  5
413
330
1F
100
AcDbEntity
  8
0
  6
Continuous
 62
     1
100
AcDbLine
 10
413.942640687
 20
320.032640687
 30
0.0
 11
412.942640687
 21
319.032640687
 31
0.0
  0
LINE
  5
414
330
1F
100
AcDbEntity
  8
0
  6
Continuous
 62
     1
100
AcDbLine
 10
412.942640687
 20
315.032640687
 30
0.0
 11
413.942640687
 21
315.032640687
 31
0.0
  0
LINE
  5
415
330
1F
100
AcDbEntity
  8
0
  6
Continuous
 62
     1
100
AcDbLine
 10
413.942640687
 20
315.032640687
 30
0.0
 11
413.942640687
 21
323.032640687
 31
0.0
  0
LINE
  5
416
330
1F
100
AcDbEntity
  8
0
  6
Continuous
 62
     1
100
AcDbLine
 10
412.942640687
 20
323.032640687
 30
0.0
 11
413.942640687
 21
323.032640687
 31
0.0
  0
LINE
  5
417
330
1F
100
AcDbEntity
  8
0
  6
Continuous
 62
     1
100
AcDbLine
 10
418.942640687
 20
323.532640687
 30
0.0
 11
418.942640687
 21
325.532640687
 31
0.0
  0
LINE
  5
418
330
1F
100
AcDbEntity
  8
0
  6
Continuous
 62
     1
100
AcDbLine
 10
416.942640687
 20
323.532640687
 30
0.0
 11
416.942640687
 21
325.532640687
 31
0.0
  0
ARC
  5
419
330
1F
100
AcDbEntity
  8
0
  6
Continuous
 62
     1
100
AcDbCircle
 10
413.942640687
 20
317.532640687
 30
0.0
 40
2.5
100
AcDbArc
 50
270.0
 51
0.0
  0
ARC
  5
41A
330
1F
100
AcDbEntity
  8
0
  6
Continuous
 62
     1
100
AcDbCircle
 10
413.942640687
 20
320.532640687
 30
0.0
 40
2.5
100
AcDbArc
 50
0.0
 51
90.0
  0
LINE
  5
41B
330
1F
100
AcDbEntity
  8
0
  6
Continuous
 62
     1
100
AcDbLine
 10
416.442640687
 20
320.532640687
 30
0.0
 11
416.442640687
 21
317.532640687
 31
0.0
  0
LINE
  5
41C
330
1F
100
AcDbEntity
  8
0
  6
Continuous
 62
     1
100
AcDbLine
 10
420.942640687
 20
314.532640687
 30
0.0
 11
420.942640687
 21
312.532640687
 31
0.0
  0
LINE
  5
41D
330
1F
100
AcDbEntity
  8
0
  6
Continuous
 62
     1
100
AcDbLine
 10
420.942640687
 20
312.532640687
 30
0.0
 11
407.942640687
 21
312.532640687
 31
0.0
  0
LINE
  5
41E
330
1F
100
AcDbEntity
  8
0
  6
Continuous
 62
     1
100
AcDbLine
 10
407.942640687
 20
312.532640687
 30
0.0
 11
407.942640687
 21
303.532640687
 31
0.0
  0
LINE
  5
41F
330
1F
100
AcDbEntity
  8
0
  6
Continuous
 62
     1
100
AcDbLine
 10
407.942640687
 20
303.532640687
 30
0.0
 11
420.942640687
 21
303.532640687
 31
0.0
  0
LINE
  5
420
330
1F
100
AcDbEntity
  8
0
  6
Continuous
 62
     1
100
AcDbLine
 10
411.942640687
 20
303.532640687
 30
0.0
 11
411.942640687
 21
312.532640687
 31
0.0
  0
LINE
  5
421
330
1F
100
AcDbEntity
  8
0
  6
Continuous
 62
     1
100
AcDbLine
 10
412.942640687
 20
303.532640687
 30
0.0
 11
412.942640687
 21
312.532640687
 31
0.0
  0
LINE
  5
422
330
1F
100
AcDbEntity
  8
0
  6
Continuous
 62
     1
100
AcDbLine
 10
413.942640687
 20
308.032640687
 30
0.0
 11
412.942640687
 21
307.032640687
 31
0.0
  0
LINE
  5
423
330
1F
100
AcDbEntity
  8
0
  6
Continuous
 62
     1
100
AcDbLine
 10
413.942640687
 20
309.032640687
 30
0.0
 11
412.942640687
 21
308.032640687
 31
0.0
  0
LINE
  5
424
330
1F
100
AcDbEntity
  8
0
  6
Continuous
 62
     1
100
AcDbLine
 10
412.942640687
 20
304.032640687
 30
0.0
 11
413.942640687
 21
304.032640687
 31
0.0
  0
LINE
  5
425
330
1F
100
AcDbEntity
  8
0
  6
Continuous
 62
     1
100
AcDbLine
 10
413.942640687
 20
304.032640687
 30
0.0
 11
413.942640687
 21
312.032640687
 31
0.0
  0
LINE
  5
426
330
1F
100
AcDbEntity
  8
0
  6
Continuous
 62
     1
100
AcDbLine
 10
412.942640687
 20
312.032640687
 30
0.0
 11
413.942640687
 21
312.032640687
 31
0.0
  0
LINE
  5
427
330
1F
100
AcDbEntity
  8
0
  6
Continuous
 62
     1
100
AcDbLine
 10
418.942640687
 20
312.532640687
 30
0.0
 11
418.942640687
 21
314.532640687
 31
0.0
  0
LINE
  5
428
330
1F
100
AcDbEntity
  8
0
  6
Continuous
 62
     1
100
AcDbLine
 10
416.942640687
 20
312.532640687
 30
0.0
 11
416.942640687
 21
314.532640687
 31
0.0
  0
ARC
  5
429
330
1F
100
AcDbEntity
  8
0
  6
Continuous
 62
     1
100
AcDbCircle
 10
413.942640687
 20
306.532640687
 30
0.0
 40
2.5
100
AcDbArc
 50
270.0
 51
0.0
  0
ARC
  5
42A
330
1F
100
AcDbEntity
  8
0
  6
Continuous
 62
     1
100
AcDbCircle
 10
413.942640687
 20
309.532640687
 30
0.0
 40
2.5
100
AcDbArc
 50
0.0
 51
90.0
  0
LINE
  5
42B
330
1F
100
AcDbEntity
  8
0
  6
Continuous
 62
     1
100
AcDbLine
 10
416.442640687
 20
309.532640687
 30
0.0
 11
416.442640687
 21
306.532640687
 31
0.0
  0
LINE
  5
42C
330
1F
100
AcDbEntity
  8
0
  6
Continuous
 62
     1
100
AcDbLine
 10
420.942640687
 20
303.532640687
 30
0.0
 11
420.942640687
 21
301.532640687
 31
0.0
  0
LINE
  5
42D
330
1F
100
AcDbEntity
  8
0
  6
Continuous
 62
     1
100
AcDbLine
 10
420.942640687
 20
301.532640687
 30
0.0
 11
407.942640687
 21
301.532640687
 31
0.0
  0
LINE
  5
42E
330
1F
100
AcDbEntity
  8
0
  6
Continuous
 62
     1
100
AcDbLine
 10
418.942640687
 20
301.532640687
 30
0.0
 11
418.942640687
 21
303.532640687
 31
0.0
  0
LINE
  5
42F
330
1F
100
AcDbEntity
  8
0
  6
Continuous
 62
     1
100
AcDbLine
 10
416.942640687
 20
301.532640687
 30
0.0
 11
416.942640687
 21
303.532640687
 31
0.0
  0
LINE
  5
430
330
1F
100
AcDbEntity
  8
0
  6
Continuous
 62
     1
100
AcDbLine
 10
407.942640687
 20
301.532640687
 30
0.0
 11
407.942640687
 21
300.232640687
 31
0.0
  0
LINE
  5
431
330
1F
100
AcDbEntity
  8
0
  6
Continuous
 62
     1
100
AcDbLine
 10
407.942640687
 20
300.232640687
 30
0.0
 11
411.942640687
 21
300.232640687
 31
0.0
  0
LINE
  5
432
330
1F
100
AcDbEntity
  8
0
  6
Continuous
 62
     1
100
AcDbLine
 10
411.942640687
 20
300.232640687
 30
0.0
 11
411.942640687
 21
301.532640687
 31
0.0
  0
LINE
  5
433
330
1F
100
AcDbEntity
  8
0
  6
Continuous
 62
     1
100
AcDbLine
 10
411.942640687
 20
370.832640687
 30
0.0
 11
411.942640687
 21
369.532640687
 31
0.0
  0
LINE
  5
434
330
1F
100
AcDbEntity
  8
0
  6
Continuous
 62
     1
100
AcDbLine
 10
411.942640687
 20
369.532640687
 30
0.0
 11
407.942640687
 21
369.532640687
 31
0.0
  0
LINE
  5
435
330
1F
100
AcDbEntity
  8
0
  6
Continuous
 62
     1
100
AcDbLine
 10
407.942640687
 20
369.532640687
 30
0.0
 11
407.942640687
 21
370.832640687
 31
0.0
  0
LINE
  5
436
330
1F
100
AcDbEntity
  8
0
  6
Continuous
 62
     1
100
AcDbLine
 10
411.942640687
 20
369.532640687
 30
0.0
 11
420.942640687
 21
369.532640687
 31
0.0
  0
LINE
  5
437
330
1F
100
AcDbEntity
  8
0
  6
Continuous
 62
     1
100
AcDbLine
 10
420.942640687
 20
369.532640687
 30
0.0
 11
420.942640687
 21
367.532640687
 31
0.0
  0
LINE
  5
438
330
1F
100
AcDbEntity
  8
0
  6
Continuous
 62
     1
100
AcDbLine
 10
420.942640687
 20
367.532640687
 30
0.0
 11
407.942640687
 21
367.532640687
 31
0.0
  0
LINE
  5
439
330
1F
100
AcDbEntity
  8
0
  6
Continuous
 62
     1
100
AcDbLine
 10
407.942640687
 20
367.532640687
 30
0.0
 11
407.942640687
 21
358.532640687
 31
0.0
  0
LINE
  5
43A
330
1F
100
AcDbEntity
  8
0
  6
Continuous
 62
     1
100
AcDbLine
 10
407.942640687
 20
358.532640687
 30
0.0
 11
420.942640687
 21
358.532640687
 31
0.0
  0
LINE
  5
43B
330
1F
100
AcDbEntity
  8
0
  6
Continuous
 62
     1
100
AcDbLine
 10
411.942640687
 20
358.532640687
 30
0.0
 11
411.942640687
 21
367.532640687
 31
0.0
  0
LINE
  5
43C
330
1F
100
AcDbEntity
  8
0
  6
Continuous
 62
     1
100
AcDbLine
 10
412.942640687
 20
358.532640687
 30
0.0
 11
412.942640687
 21
367.532640687
 31
0.0
  0
LINE
  5
43D
330
1F
100
AcDbEntity
  8
0
  6
Continuous
 62
     1
100
AcDbLine
 10
413.942640687
 20
363.032640687
 30
0.0
 11
412.942640687
 21
362.032640687
 31
0.0
  0
LINE
  5
43E
330
1F
100
AcDbEntity
  8
0
  6
Continuous
 62
     1
100
AcDbLine
 10
413.942640687
 20
364.032640687
 30
0.0
 11
412.942640687
 21
363.032640687
 31
0.0
  0
LINE
  5
43F
330
1F
100
AcDbEntity
  8
0
  6
Continuous
 62
     1
100
AcDbLine
 10
412.942640687
 20
359.032640687
 30
0.0
 11
413.942640687
 21
359.032640687
 31
0.0
  0
LINE
  5
440
330
1F
100
AcDbEntity
  8
0
  6
Continuous
 62
     1
100
AcDbLine
 10
413.942640687
 20
359.032640687
 30
0.0
 11
413.942640687
 21
367.032640687
 31
0.0
  0
LINE
  5
441
330
1F
100
AcDbEntity
  8
0
  6
Continuous
 62
     1
100
AcDbLine
 10
412.942640687
 20
367.032640687
 30
0.0
 11
413.942640687
 21
367.032640687
 31
0.0
  0
LINE
  5
442
330
1F
100
AcDbEntity
  8
0
  6
Continuous
 62
     1
100
AcDbLine
 10
418.942640687
 20
367.532640687
 30
0.0
 11
418.942640687
 21
369.532640687
 31
0.0
  0
LINE
  5
443
330
1F
100
AcDbEntity
  8
0
  6
Continuous
 62
     1
100
AcDbLine
 10
416.942640687
 20
367.532640687
 30
0.0
 11
416.942640687
 21
369.532640687
 31
0.0
  0
ARC
  5
444
330
1F
100
AcDbEntity
  8
0
  6
Continuous
 62
     1
100
AcDbCircle
 10
413.942640687
 20
361.532640687
 30
0.0
 40
2.5
100
AcDbArc
 50
270.0
 51
0.0
  0
ARC
  5
445
330
1F
100
AcDbEntity
  8
0
  6
Continuous
 62
     1
100
AcDbCircle
 10
413.942640687
 20
364.532640687
 30
0.0
 40
2.5
100
AcDbArc
 50
0.0
 51
90.0
  0
LINE
  5
446
330
1F
100
AcDbEntity
  8
0
  6
Continuous
 62
     1
100
AcDbLine
 10
416.442640687
 20
364.532640687
 30
0.0
 11
416.442640687
 21
361.532640687
 31
0.0
  0
LINE
  5
447
330
1F
100
AcDbEntity
  8
0
  6
Continuous
 62
     1
100
AcDbLine
 10
420.942640687
 20
358.532640687
 30
0.0
 11
420.942640687
 21
356.532640687
 31
0.0
  0
LINE
  5
448
330
1F
100
AcDbEntity
  8
0
  6
Continuous
 62
     1
100
AcDbLine
 10
420.942640687
 20
356.532640687
 30
0.0
 11
407.942640687
 21
356.532640687
 31
0.0
  0
LINE
  5
449
330
1F
100
AcDbEntity
  8
0
  6
Continuous
 62
     1
100
AcDbLine
 10
407.942640687
 20
356.532640687
 30
0.0
 11
407.942640687
 21
347.532640687
 31
0.0
  0
LINE
  5
44A
330
1F
100
AcDbEntity
  8
0
  6
Continuous
 62
     1
100
AcDbLine
 10
407.942640687
 20
347.532640687
 30
0.0
 11
420.942640687
 21
347.532640687
 31
0.0
  0
LINE
  5
44B
330
1F
100
AcDbEntity
  8
0
  6
Continuous
 62
     1
100
AcDbLine
 10
411.942640687
 20
347.532640687
 30
0.0
 11
411.942640687
 21
356.532640687
 31
0.0
  0
LINE
  5
44C
330
1F
100
AcDbEntity
  8
0
  6
Continuous
 62
     1
100
AcDbLine
 10
412.942640687
 20
347.532640687
 30
0.0
 11
412.942640687
 21
356.532640687
 31
0.0
  0
LINE
  5
44D
330
1F
100
AcDbEntity
  8
0
  6
Continuous
 62
     1
100
AcDbLine
 10
413.942640687
 20
352.032640687
 30
0.0
 11
412.942640687
 21
351.032640687
 31
0.0
  0
LINE
  5
44E
330
1F
100
AcDbEntity
  8
0
  6
Continuous
 62
     1
100
AcDbLine
 10
413.942640687
 20
353.032640687
 30
0.0
 11
412.942640687
 21
352.032640687
 31
0.0
  0
LINE
  5
44F
330
1F
100
AcDbEntity
  8
0
  6
Continuous
 62
     1
100
AcDbLine
 10
412.942640687
 20
348.032640687
 30
0.0
 11
413.942640687
 21
348.032640687
 31
0.0
  0
LINE
  5
450
330
1F
100
AcDbEntity
  8
0
  6
Continuous
 62
     1
100
AcDbLine
 10
413.942640687
 20
348.032640687
 30
0.0
 11
413.942640687
 21
356.032640687
 31
0.0
  0
LINE
  5
451
330
1F
100
AcDbEntity
  8
0
  6
Continuous
 62
     1
100
AcDbLine
 10
412.942640687
 20
356.032640687
 30
0.0
 11
413.942640687
 21
356.032640687
 31
0.0
  0
LINE
  5
452
330
1F
100
AcDbEntity
  8
0
  6
Continuous
 62
     1
100
AcDbLine
 10
418.942640687
 20
356.532640687
 30
0.0
 11
418.942640687
 21
358.532640687
 31
0.0
  0
LINE
  5
453
330
1F
100
AcDbEntity
  8
0
  6
Continuous
 62
     1
100
AcDbLine
 10
416.942640687
 20
356.532640687
 30
0.0
 11
416.942640687
 21
358.532640687
 31
0.0
  0
ARC
  5
454
330
1F
100
AcDbEntity
  8
0
  6
Continuous
 62
     1
100
AcDbCircle
 10
413.942640687
 20
350.532640687
 30
0.0
 40
2.5
100
AcDbArc
 50
270.0
 51
0.0
  0
ARC
  5
455
330
1F
100
AcDbEntity
  8
0
  6
Continuous
 62
     1
100
AcDbCircle
 10
413.942640687
 20
353.532640687
 30
0.0
 40
2.5
100
AcDbArc
 50
0.0
 51
90.0
  0
LINE
  5
456
330
1F
100
AcDbEntity
  8
0
  6
Continuous
 62
     1
100
AcDbLine
 10
416.442640687
 20
353.532640687
 30
0.0
 11
416.442640687
 21
350.532640687
 31
0.0
  0
LINE
  5
457
330
1F
100
AcDbEntity
  8
0
  6
Continuous
 62
     1
100
AcDbLine
 10
420.942640687
 20
347.532640687
 30
0.0
 11
420.942640687
 21
345.532640687
 31
0.0
  0
LINE
  5
458
330
1F
100
AcDbEntity
  8
0
  6
Continuous
 62
     1
100
AcDbLine
 10
420.942640687
 20
345.532640687
 30
0.0
 11
407.942640687
 21
345.532640687
 31
0.0
  0
LINE
  5
459
330
1F
100
AcDbEntity
  8
0
  6
Continuous
 62
     1
100
AcDbLine
 10
407.942640687
 20
345.532640687
 30
0.0
 11
407.942640687
 21
336.532640687
 31
0.0
  0
LINE
  5
45A
330
1F
100
AcDbEntity
  8
0
  6
Continuous
 62
     1
100
AcDbLine
 10
407.942640687
 20
336.532640687
 30
0.0
 11
420.942640687
 21
336.532640687
 31
0.0
  0
LINE
  5
45B
330
1F
100
AcDbEntity
  8
0
  6
Continuous
 62
     1
100
AcDbLine
 10
411.942640687
 20
336.532640687
 30
0.0
 11
411.942640687
 21
345.532640687
 31
0.0
  0
LINE
  5
45C
330
1F
100
AcDbEntity
  8
0
  6
Continuous
 62
     1
100
AcDbLine
 10
412.942640687
 20
336.532640687
 30
0.0
 11
412.942640687
 21
345.532640687
 31
0.0
  0
LINE
  5
45D
330
1F
100
AcDbEntity
  8
0
  6
Continuous
 62
     1
100
AcDbLine
 10
413.942640687
 20
341.032640687
 30
0.0
 11
412.942640687
 21
340.032640687
 31
0.0
  0
LINE
  5
45E
330
1F
100
AcDbEntity
  8
0
  6
Continuous
 62
     1
100
AcDbLine
 10
413.942640687
 20
342.032640687
 30
0.0
 11
412.942640687
 21
341.032640687
 31
0.0
  0
LINE
  5
45F
330
1F
100
AcDbEntity
  8
0
  6
Continuous
 62
     1
100
AcDbLine
 10
412.942640687
 20
337.032640687
 30
0.0
 11
413.942640687
 21
337.032640687
 31
0.0
  0
LINE
  5
460
330
1F
100
AcDbEntity
  8
0
  6
Continuous
 62
     1
100
AcDbLine
 10
413.942640687
 20
337.032640687
 30
0.0
 11
413.942640687
 21
345.032640687
 31
0.0
  0
LINE
  5
461
330
1F
100
AcDbEntity
  8
0
  6
Continuous
 62
     1
100
AcDbLine
 10
412.942640687
 20
345.032640687
 30
0.0
 11
413.942640687
 21
345.032640687
 31
0.0
  0
LINE
  5
462
330
1F
100
AcDbEntity
  8
0
  6
Continuous
 62
     1
100
AcDbLine
 10
418.942640687
 20
345.532640687
 30
0.0
 11
418.942640687
 21
347.532640687
 31
0.0
  0
LINE
  5
463
330
1F
100
AcDbEntity
  8
0
  6
Continuous
 62
     1
100
AcDbLine
 10
416.942640687
 20
345.532640687
 30
0.0
 11
416.942640687
 21
347.532640687
 31
0.0
  0
ARC
  5
464
330
1F
100
AcDbEntity
  8
0
  6
Continuous
 62
     1
100
AcDbCircle
 10
413.942640687
 20
339.532640687
 30
0.0
 40
2.5
100
AcDbArc
 50
270.0
 51
0.0
  0
ARC
  5
465
330
1F
100
AcDbEntity
  8
0
  6
Continuous
 62
     1
100
AcDbCircle
 10
413.942640687
 20
342.532640687
 30
0.0
 40
2.5
100
AcDbArc
 50
0.0
 51
90.0
  0
LINE
  5
466
330
1F
100
AcDbEntity
  8
0
  6
Continuous
 62
     1
100
AcDbLine
 10
416.442640687
 20
342.532640687
 30
0.0
 11
416.442640687
 21
339.532640687
 31
0.0
  0
LINE
  5
467
330
1F
100
AcDbEntity
  8
0
  6
Continuous
 62
     1
100
AcDbLine
 10
411.942640687
 20
300.232640687
 30
0.0
 11
402.942640687
 21
300.232640687
 31
0.0
  0
LINE
  5
468
330
1F
100
AcDbEntity
  8
0
  6
Continuous
 62
     1
100
AcDbLine
 10
411.942640687
 20
370.832640687
 30
0.0
 11
402.942640687
 21
370.832640687
 31
0.0
  0
LINE
  5
469
330
1F
100
AcDbEntity
  8
0
  6
Continuous
 62
     1
100
AcDbLine
 10
402.942640687
 20
205.982640687
 30
0.0
 11
415.942640687
 21
205.982640687
 31
0.0
  0
LINE
  5
46A
330
1F
100
AcDbEntity
  8
0
  6
Continuous
 62
     1
100
AcDbLine
 10
415.942640687
 20
222.982640687
 30
0.0
 11
402.942640687
 21
222.982640687
 31
0.0
  0
TEXT
  5
46B
330
1F
100
AcDbEntity
  8
0
  6
Continuous
 62
     1
100
AcDbText
 10
541.5
 20
151.09
 30
0.0
 40
5.0
  1
端子カバー：ワンタッチカバー
 41
1.0
  7
KANJI9
100
AcDbText
  0
TEXT
  5
46D
330
1F
100
AcDbEntity
  8
0
  6
Continuous
 62
     1
100
AcDbText
 10
541.5
 20
173.59
 30
0.0
 40
5.0
  1
ケース：鉄・アルミ
 41
1.0
  7
KANJI8
100
AcDbText
  0
LINE
  5
46E
330
1F
100
AcDbEntity
  8
0
  6
Continuous
 62
     1
100
AcDbLine
 10
402.942640687
 20
229.982640687
 30
0.0
 11
402.942640687
 21
255.582640687
 31
0.0
  0
LINE
  5
46F
330
1F
100
AcDbEntity
  8
0
  6
Continuous
 62
     1
100
AcDbLine
 10
402.942640687
 20
251.582640687
 30
0.0
 11
398.113011556
 21
252.876735913
 31
0.0
  0
LINE
  5
470
330
1F
100
AcDbEntity
  8
0
  6
Continuous
 62
     1
100
AcDbLine
 10
402.942640687
 20
251.582640687
 30
0.0
 11
398.113011556
 21
250.288545462
 31
0.0
  0
LWPOLYLINE
  5
472
330
1F
100
AcDbEntity
  8
0
  6
Continuous
 62
     1
100
AcDbPolyline
 90
     4
 70
   128
 43
0.0
 10
395.442640687
 20
251.582640687
 10
402.942640687
 20
251.582640687
 10
420.942640687
 20
251.582640687
 10
458.042640687
 20
251.582640687
  0
LINE
  5
473
330
1F
100
AcDbEntity
  8
0
  6
Continuous
 62
     1
100
AcDbLine
 10
420.942640687
 20
251.582640687
 30
0.0
 11
425.772269819
 21
250.288545462
 31
0.0
  0
LINE
  5
474
330
1F
100
AcDbEntity
  8
0
  6
Continuous
 62
     1
100
AcDbLine
 10
420.942640687
 20
251.582640687
 30
0.0
 11
425.772269819
 21
252.876735913
 31
0.0
  0
LINE
  5
475
330
1F
100
AcDbEntity
  8
0
  6
Continuous
 62
     1
100
AcDbLine
 10
420.942640687
 20
223.982640687
 30
0.0
 11
420.942640687
 21
255.582640687
 31
0.0
  0
TEXT
  5
476
330
1F
100
AcDbEntity
  8
0
  6
Continuous
 62
     1
100
AcDbText
 10
428.442640687
 20
253.582640687
 30
0.0
 40
6.0
  1
１８ｍａｘ
 41
0.933333333
 51
15.0
  7
KANJI7
100
AcDbText
  0
TEXT
  5
477
330
1F
100
AcDbEntity
  8
0
  6
Continuous
 62
     1
100
AcDbText
 10
541.5
 20
166.09
 30
0.0
 40
5.0
  1
表面処理：鉄　　－　三価クロメートメッキ
 41
1.0
  7
KANJI8
100
AcDbText
  0
LINE
  5
478
330
1F
100
AcDbEntity
  8
0
  6
Continuous
 62
     1
100
AcDbLine
 10
384.922640687
 20
156.682640687
 30
0.0
 11
389.733315638
 21
158.045507708
 31
0.0
  0
LINE
  5
479
330
1F
100
AcDbEntity
  8
0
  6
Continuous
 62
     1
100
AcDbLine
 10
384.922640687
 20
156.682640687
 30
0.0
 11
388.407373894
 21
160.268255625
 31
0.0
  0
LINE
  5
47A
330
1F
100
AcDbEntity
  8
0
  6
Continuous
 62
     1
100
AcDbLine
 10
384.922640687
 20
156.682640687
 30
0.0
 11
440.074691495
 21
189.582640687
 31
0.0
  0
TEXT
  5
47B
330
1F
100
AcDbEntity
  8
0
  6
Continuous
 62
     1
100
AcDbText
 10
603.113961031
 20
278.591475696
 30
0.0
 40
6.0
  1
１０－Ｍ４端子ネジ
 41
0.9
 51
15.0
  7
KANJI10
100
AcDbText
  0
TEXT
  5
47D
330
1F
100
AcDbEntity
  8
0
  6
Continuous
 62
     1
100
AcDbText
 10
568.642640687
 20
266.882640687
 30
0.0
 40
6.0
  1
Ｍ４　ＦＧ　端子ネジ
 41
0.9
 51
15.0
  7
KANJI10
100
AcDbText
  0
TEXT
  5
47E
330
1F
100
AcDbEntity
  8
0
  6
Continuous
 62
     1
100
AcDbText
 10
440.074691495
 20
191.582640687
 30
0.0
 40
6.0
  1
４－Ｍ４×Ｄ８　取付用ネジ穴
 41
0.9
 51
15.0
  7
KANJI10
100
AcDbText
  0
ENDSEC
  0
SECTION
  2
OBJECTS
  0
DICTIONARY
  5
C
330
0
100
AcDbDictionary
280
     0
281
     1
  3
ACAD_GROUP
350
D
  3
ACAD_LAYOUT
350
1A
  3
ACAD_MLINESTYLE
350
17
  3
ACAD_PLOTSETTINGS
350
19
  3
ACAD_PLOTSTYLENAME
350
E
  0
DICTIONARY
  5
D
102
{ACAD_REACTORS
330
C
102
}
330
C
100
AcDbDictionary
280
     0
281
     1
  0
DICTIONARY
  5
1A
102
{ACAD_REACTORS
330
C
102
}
330
C
100
AcDbDictionary
280
     0
281
     1
  3
Model
350
22
  3
ﾚｲｱｳﾄ1
350
1E
  3
ﾚｲｱｳﾄ2
350
26
  0
LAYOUT
  5
22
102
{ACAD_REACTORS
330
1A
102
}
330
1A
100
AcDbPlotSettings
  1

  2

  4

  6

 40
0.0
 41
0.0
 42
0.0
 43
0.0
 44
0.0
 45
0.0
 46
0.0
 47
0.0
 48
0.0
 49
0.0
140
0.0
141
0.0
142
1.0
143
1.0
 70
  1712
 72
     0
 73
     0
 74
     0
  7

 75
     0
147
1.0
148
0.0
149
0.0
100
AcDbLayout
  1
Model
 70
     1
 71
     0
 10
0.0
 20
0.0
 11
0.0
 21
0.0
 12
0.0
 22
0.0
 32
0.0
 14
0.0
 24
0.0
 34
0.0
 15
0.0
 25
0.0
 35
0.0
146
0.0
 13
0.0
 23
0.0
 33
0.0
 16
1.0
 26
0.0
 36
0.0
 17
0.0
 27
1.0
 37
0.0
 76
     0
330
1F
331
0
345
0
346
0
  0
LAYOUT
  5
1E
102
{ACAD_REACTORS
330
1A
102
}
330
1A
100
AcDbPlotSettings
  1

  2

  4

  6

 40
0.0
 41
0.0
 42
0.0
 43
0.0
 44
0.0
 45
0.0
 46
0.0
 47
0.0
 48
0.0
 49
0.0
140
0.0
141
0.0
142
1.0
143
1.0
 70
   688
 72
     0
 73
     0
 74
     5
  7

 75
    16
147
1.0
148
0.0
149
0.0
100
AcDbLayout
  1
ﾚｲｱｳﾄ1
 70
     1
 71
     1
 10
0.0
 20
0.0
 11
0.0
 21
0.0
 12
0.0
 22
0.0
 32
0.0
 14
0.0
 24
0.0
 34
0.0
 15
0.0
 25
0.0
 35
0.0
146
0.0
 13
0.0
 23
0.0
 33
0.0
 16
1.0
 26
0.0
 36
0.0
 17
0.0
 27
1.0
 37
0.0
 76
     0
330
1B
331
0
345
0
346
0
  0
LAYOUT
  5
26
102
{ACAD_REACTORS
330
1A
102
}
330
1A
100
AcDbPlotSettings
  1

  2

  4

  6

 40
0.0
 41
0.0
 42
0.0
 43
0.0
 44
0.0
 45
0.0
 46
0.0
 47
0.0
 48
0.0
 49
0.0
140
0.0
141
0.0
142
1.0
143
1.0
 70
   688
 72
     0
 73
     0
 74
     5
  7

 75
    16
147
1.0
148
0.0
149
0.0
100
AcDbLayout
  1
ﾚｲｱｳﾄ2
 70
     1
 71
     2
 10
0.0
 20
0.0
 11
0.0
 21
0.0
 12
0.0
 22
0.0
 32
0.0
 14
0.0
 24
0.0
 34
0.0
 15
0.0
 25
0.0
 35
0.0
146
0.0
 13
0.0
 23
0.0
 33
0.0
 16
1.0
 26
0.0
 36
0.0
 17
0.0
 27
1.0
 37
0.0
 76
     0
330
23
331
0
345
0
346
0
  0
DICTIONARY
  5
17
102
{ACAD_REACTORS
330
C
102
}
330
C
100
AcDbDictionary
280
     0
281
     1
  3
Standard
350
18
  0
MLINESTYLE
  5
18
102
{ACAD_REACTORS
330
17
102
}
330
17
100
AcDbMlineStyle
  2
STANDARD
 70
     0
  3

 62
   256
 51
90.0
 52
90.0
 71
     2
 49
0.5
 62
   256
  6
ByLayer
 49
-0.5
 62
   256
  6
ByLayer
  0
DICTIONARY
  5
19
102
{ACAD_REACTORS
330
C
102
}
330
C
100
AcDbDictionary
280
     0
281
     1
  0
ACDBDICTIONARYWDFLT
  5
E
330
C
100
AcDbDictionary
281
     0
  3
Normal
350
F
100
AcDbDictionaryWithDefault
340
F
  0
ACDBPLACEHOLDER
  5
F
102
{ACAD_REACTORS
330
E
102
}
330
E
  0
ENDSEC
  0
EOF
